Song name
# A B C D E F G H I J K L M N O P Q R S T U V W X Y Z

Dick Dale - Surf Beat tab

Played with a lot of reverb, like a Line 6 Verbzilla or a Fender FDR-1.


Intro x2
--------------------------------------------------------------------------------|
--------------------------------------------------------------------------------|
---------------------------------3--3--3--3---3--3--3--3------------------------|
---3----3----3--3--3-3--3--3-----3--3--3--3---3--3--3--3-- -3--3--3--3-3-3-3-3--|
---3----3----3--3--3-3--3--3-----1--1--1--1---1--1--1--1----3--3--3--3-3-3-3-3--|
---1----1----1--1--1-1--1--1--------------------------------1--1--1--1-1-1-1-1--|

				Verse

-----------------------------------------------------------------|
-----------------------------------------------------------------|
-----------------------------------------------------------------|
--------------------------------- -------------------------------|
-------------------------------------1 1 1 4 1 4 6 6 4 6 4 1 x2--|
1 1 1 4 1 4 6 6 4 6 4 1 x2 --------------------------------------|


-----------------------------------------|
-----------------------------------------|
-----------------------------------------|
------4 7 9 12 14 14 15 14 12 9 7 9 7 4--|
-----------------------------------------|
-----------------------------------------|

----------------------------------------------------------------------|
----------------------------------------------------------------------|
----------------------------------------------------------------------|
--------------------------------- ------------------------------------|
------------------------------------------1 1 1 4 1 4 6 6 4 6 4 1 x2--|
1 1 1 4 1 4 6 6 4 6 4 1 x2 -------------------------------------------|


-----------------------------------------------------------------|
-----------------------------------------------------------------|
-----------------------------------------------------------------|
------4 7 9 12 14 14 15 14 12 9 7 9 7 4--------------------------|
-----------------------------------------------------------------|
-----------------------------------------------------------------|

-----------------------------------------------------------------|
-----------------------------------------------------------------|
-----------------------------------------------------------------|
--------------------------------- -------------------------------|
-------------------------------------1 1 1 4 1 4 6 6 4 6 4 1 x2--|
1 1 1 4 1 4 6 6 4 6 4 1 x2 --------------------------------------|


-----------------------------------------|
-----------------------------------------|
-----------------------------------------|
------4 7 9 12 14 14 15 14 12 9 7 9 7 4--|
-----------------------------------------|
-----------------------------------------|


-----9 12 9 12 14 14 14 14 14 12 9 12 -|
---------------------------------------|
---------------------------------------|
---------------------------------------|
---------------------------------------|
---------------------------------------|

-----------------------------------------------------------------|
-----------------------------------------------------------------|
-----------------------------------------------------------------|
--------------------------------- -------------------------------|
-------------------------------------1 1 1 4 1 4 6 6 4 6 4 1 x2--|
1 1 1 4 1 4 6 6 4 6 4 1 x2 --------------------------------------|


-----------------------------------------------------------------------------------|
-----------------------------------------------------------------------------------|
-----------------------------------------------------------------------------------|
------4 7 9 12 14 14 15 14 12 9 7 9 7 4-------12 12 12 12 12 12 12 11 12 15 15 15 -|
-----------------------------------------------------------------------------------|
-----------------------------------------------------------------------------------|

---------------------------------------------------------------------|
---------------------------------------------------------------------|
---------------------------------------------------------------------|
---15  15 15 15 15 15 11 12 17 17 19 18 17  17 17 17 17 19 17 15 12 -|
---------------------------------------------------------------------|
---------------------------------------------------------------------|
Tap to rate this tab
 
# A B C D E F G H I J K L M N O P Q R S T U V W X Y Z