Song name
# A B C D E F G H I J K L M N O P Q R S T U V W X Y Z

Dick Dale - Motion tab

here ye go:

            "MOTION" by Dick Dale & his Del-Tones
|-------------------------|-------------------------------------|
|-------------------------|-------------------------------------|
|-------------------------|-------------------------------------|
|-------------------------|-------------------------------------|
|-------------------------|-----0--0---0--0----0--0-----7--9--7-|
|---0---0--0--3--0--3--5--|-/5~~~~~~-/5~~~~-/5~~~~----9---------|


|-------------------------------------|--------------------------------------|
|-------------------------------------|--------------------------------------|
|-------------------------------------|--------------------------------------|
|-----0--0---0--0----0--0-----7--9--7-|--------------------------------------|
|-/5~~~~~~-/5~~~~-/5~~~~----9---------|-----------------2---4h5--5-5-5--4--2-|
|-------------------------------------|--0---0--0--3-4----0------------------|

|-----------------------------|-------------------------|
|-----------------------------|-------------------------|
|-----------------------------|-------------------------|
|-----------------------------|-------------------------|
|-----0--0---0--0----0--0-----|-------------------------|
|-/5~~~~~~-/5~~~~-/5~~~~----5-|---0---0--0--3--0--3--5--|

|-------------------------------------|
|-------------------------------------|
|-------------------------------------|
|-------------------------------------|
|-----0--0---0--0----0--0-----7--9--7-|
|-/5~~~~~~-/5~~~~-/5~~~~----9---------|

|-------------------------------------|--------------------------------------|
|-------------------------------------|--------------------------------------|
|-------------------------------------|--------------------------------------|
|-----0--0---0--0----0--0-----7--9--7-|--------------------------------------|
|-/5~~~~~~-/5~~~~-/5~~~~----9---------|-----------------2---4h5--5-5-5--4--2-|
|-------------------------------------|--0---0--0--3-4----0------------------|


|-------------------------|------------------------------|
|-------------------------|------------------------------|
|-------------------------|------------------------------|
|-------------------------|-----0--0---0--0----0--0------|
|-------------------------|-/5~~~~~~-/5~~~~-/5~~~~----5--|
|---0---0--0--3--0--3--5--|------------------------------|

|------------------------------|
|------------------------------|
|------------------------------|
|------------------------------|
|-----0--0---0--0----0--0------|
|-/5~~~~~~-/5~~~~-/5~~~~----5--|


|------------------------------|---------------------------------|
|------------------------------|---------------------------------|
|------------------------------|---------------------------------|
|-----0--0---0--0----0--0------|---------------------------------|
|-/5~~~~~~-/5~~~~-/5~~~~----5--|--/7--7-7--/7--7-7--/7--7-7-7-7--|
|------------------------------|---------------------------------|

|-------------------------------------|
|-------------------------------------|
|-------------------------------------|
|-------------------------------------|
|-----0--0---0--0----0--0-----7--9--7-|
|-/5~~~~~~-/5~~~~-/5~~~~----9---------|

|-------------------------------------|--------------------------------------|
|-------------------------------------|--------------------------------------|
|-------------------------------------|--------------------------------------|
|-----0--0---0--0----0--0-----7--9--7-|--------------------------------------|
|-/5~~~~~~-/5~~~~-/5~~~~----9---------|-----------------2---4h5--5-5-5--4--2-|
|-------------------------------------|--0---0--0--3-4----0------------------|


and thats all ! yay!!!
i hope Dick plays again soon i havent seen him in years!
-Bert
Tap to rate this tab
 
# A B C D E F G H I J K L M N O P Q R S T U V W X Y Z