Song name
# A B C D E F G H I J K L M N O P Q R S T U V W X Y Z

Dick Dale - Mr Eliminator tab

standard tuning



               "MR.ELIMINATOR" by Dick Dale & his Del-Tones

|-----------------------------------------|---------------------------------|
|-----------------------------------------|---------------------------------|
|-----------------------------------------|---------------------------------|
|-----------------------------------------|---------------------------------|
|--------5--5---5--7-8--7--2--5-5--2---5--|--5--5---5--7-8--7--2--5-5--2--5-|
|---15/--3--3---3--5-6--5--0--3-3--0---3--|--3--3---3--5-6--5--0--3-3--0--3-|


|--------------------------------------|---------------------------------|
|--------------------------------------|---------------------------------|
|--------------------------------------|---------------------------------|
|-----5--5---5--7-8--7--2--5-5--2---5--|--5--5---5--7-8--7--2--5-5--2--5-|
|-----3--3---3--5-6--5--0--3-3--0---3--|--3--3---3--5-6--5--0--3-3--0--3-|
|--------------------------------------|---------------------------------|


|-----------------------------------------|---------------------------------|
|-----------------------------------------|---------------------------------|
|-----------------------------------------|---------------------------------|
|-----------------------------------------|---------------------------------|
|--------5--5---5--7-8--7--2--5-5--2---5--|--5--5---5--7-8--7--2--5-5--2--5-|
|---15/--3--3---3--5-6--5--0--3-3--0---3--|--3--3---3--5-6--5--0--3-3--0--3-|


|----------------------------------------------|
|----------------------------------------------|
|----------------------------------------------|
|----------------------------------------------|
|---3--4---5-5-5--3-------3--4---5-5-5--3------|
|--------------------5-5-------------------5-5-|

|------------------------------------|
|------------------------------------|
|------------------------------------|
|------------------------------------|
|---5--3-3-3--1-------1-2--3--1------|
|----------------3-3-------------3-3-|


|-----------------------------------------|
|-----------------------------------------|
|-----------------------------------------|
|-----------------------------------------|
|--------5--5---5--7-8--7--2--5-5--2---5--|
|---15/--3--3---3--5-6--5--0--3-3--0---3--|


and thats all really just repeat this and get somebody to play harmonica for you


-Bert
Tap to rate this tab
# A B C D E F G H I J K L M N O P Q R S T U V W X Y Z