Song name
# A B C D E F G H I J K L M N O P Q R S T U V W X Y Z

Dick Dale - Death Of A Gremmie tab

Help us improve GuitareTab! Take a short survey!
Song: Death of A Gremmie
Artist: Dick Dale and His Del-Tones
Tabbed by: Bruce
email: ridersinthesky_85@hotmail.com
tabbed on January 30, 2005

Intro
e-------------------------------------|
B-------------------------------------|
G-------------------------------------|
D-------------------------------------|
A---------9------------9----------9---|
E--1--2----------1--2-------1--2------|

e------------------------------------------|
B------------------------------------------|
G------------------------------------------|
D------------------------------------------|
A-----------------9---------9----------9---|
E--1--2-0r-1--2-------1--2-------1--2------|

e------------------------------------------|
B------------------------------------------|
G------------------------------------------|
D------------------------------------------|
A-----------------9---------9----------9---|
E--1--2-0r-1--2-------1--2-------1--2------|

e------------------------------------------|
B------------------------------------------|
G------------------------------------------|
D------------------------------------------|
A-----------------9---------9----------9---|
E--1--2-0r-1--2-------1--2-------1--2------|

e-------------------------------------------------------|
B-------------------------------------------------------|
G---0--0--3--0--5--3--0----------0--0--3--0--5--3--0----|
D-------------------------------------------------------|
A-------------------------------------------------------|
E-------------------------------------------------------|

e---------------------------------------------------------|
B---------------------------------------------------------|
G---0--0--3--0--5--3--5----------0--0--3--0--5p3--5p3--0--|
D---------------------------------------------------------|
A---------------------------------------------------------|
E---------------------------------------------------------|

e----------------------------------------|
B----------------------------------------|
G---0--0--3--0---------------------------|
D---------------5--3--0------------------|
A------------------------5--3------------|
E-------------------------------5b--3----|

e-------------------------------------------------------|
B---0--0--3--0--5--3--0----------0--0--3--0--5--3--0----|
G-------------------------------------------------------|
D-------------------------------------------------------|
A-------------------------------------------------------|
E-------------------------------------------------------|

There's at least the first minute of the song. I'm currently working on the rest.
Related for Death Of A Gremmie tab