Song name
# A B C D E F G H I J K L M N O P Q R S T U V W X Y Z

Dick Dale - Mag Wheels tab

ye gatta palm mute


|-----------------------------------------|
|-----------------------------------------|
|-----------------------------------------|
|-----------------------------------------|
|-----------7-5----7-5---------7-5---7----|
|------0-0-------7-----7---0-0-----7------|


the rest is:


|--------------------------------------------------|
|--------------------------------------------------|
|--------------------------------------------------|
|--------------------------------------------------|
|-----------7-5--------7-5---------7-5---7---------|
|------0-0------7--0-0-----7---0-0-----7------14s0-|


and then:


|-----------------------------------------------|
|-----------------------------------------------|
|-----------------------------------------------|
|--------7-5--------7-5--------7-5---7----------|
|----0-0-----7--0-0-----7--0-0-----7----14s0----|
|-----------------------------------------------|
Tap to rate this tab
 
# A B C D E F G H I J K L M N O P Q R S T U V W X Y Z