Song name
# A B C D E F G H I J K L M N O P Q R S T U V W X Y Z

Dick Valentine - Omaha Steaks tab

-------------------------------------------------------------------------------
                             Omaha Steaks - Dick Valentine
-------------------------------------------------------------------------------
Album: Halloween Fingers
Tabbed by: Mel
E-mail: melectricsix@gmail.com

Dick Valentine is the singer for Electric Six who has released 2 acoustic solo albums and has worked on many other projects and with so many other bands.
http://www.wikisix.co.uk/mediawiki/index.php?title=Dick_Valentine
http://www.facebook.com/dick.valentine.7

[Intro and Verse]
e|-----------------------------------|
B|-----------5-----------------------|
G|---6--6--------6-------------------|
D|---------------------7---4--4------|
A|---4----0--0------0--5---2----2----|
E|-----------------------------------|

[bridge]
e|--------------------------|
B|--------------------------|
G|--------------7--7--7-7---|
D|---7--7--7-7--7--7--7-7---|
A|---7--7--7-7--5--5--5-5---|
E|---5--5--5-5--------------|x2

[chorus]
e|---------------------------|
B|---------------------------|
G|------------7-7------------|
D|--4---9-9---7-7---7--7-7---|
A|--4---9-9---5-5---7--7-7---|
E|--2---7-7---------5--5-5---|x4

[solo]
e|-------------------------------------|
B|-------------------------------------|
G|---6-6---9-9----11-11---14-14--------|
D|---4-4---7-7----9--9----12-12--------|
A|-------------------------------------|
E|-------------------------------------|x2

[verse]
What makes the people around here so great
They focus all their energy on things they hate
World keeps turning but them's the breaks
I just bought a couple more Ohama steaks

[bridge]
And know
Love's just a stones throw
Away from all we know
[chorus]

[verse]
Where was this waltz when we needed it most
Beautiful girls turn into beautiful ghosts
I always saw this coming but I'm not here to boast
I lost a couple teeth eating Texas toast

[bridge]
And do you know what really sucks about this day
This day will never go away
[chorus]

[verse]
You took me to a place you never went yourself
It's a little late but lets drink to your health
Water's getting ready dripping down your legs
Bought your last chicken in the dragons eggs

[bridge]
Make some noise in your own way
All your friends are my friends today
[chorus]
Tap to rate this tab
# A B C D E F G H I J K L M N O P Q R S T U V W X Y Z