Song name
# A B C D E F G H I J K L M N O P Q R S T U V W X Y Z

Dickies - Bannana Splits tab

Band - The Dickies
Song - Bannana Splits (Tra La La Song)
Tabbed By : SumFX (Tyler Freear)

Possibly The Best Cover Ever? I Think So!
I Believe Everyone Knows This Song!

I Tried To Make This TAB Look Nice For You :)

More Dickies On The Way!!!!!

Chorus (Strumming Is Easy To Figure Out) Tra La La!!!
|--------------------------|--------------------------------|
|--------------------------|--------------------------------|
|-9-----9-----9-----11-----|-9-----9-----9-----11-----------|
|-9--9--9--9--9--9--11--9--|-9--9--9--9--9--9--11--99999999-|
|-7--9--7--9--7--9--9---9--|-7--9--7--9--7--9--9---99999999-|
|----7-----7-----7------7--|----7-----7-----7------77777777-|

Verse
|-------------|
|-------------|
|-------------|
|-9--9--7--9--|
|-9--9--7--9--|
|-7--7--5--7--|

Bridge
|--------------|
|--------------|
|-11--Rpt.-etc-|
|-11-----------|
|-9------------|
|--------------|

Solo!!!! (Recommended For Beginners!!!) 
|-----------|--------|-----------|----------|
|------4444-|-7777-4-|-5-54-5-54-|-54-------|
|-4444------|--------|-----------|----4-2-4-|
|-----------|--------|-----------|----------|
|-----------|--------|-----------|----------|
|-----------|--------|-----------|----------|

Key Change
Chorus
|---------------------------------|--------------------------------------|
|---------------------------------|--------------------------------------|
|-11------11------11------13------|-11------11------11------13-----------|
|-11--11--11--11--11--11--13--11--|-11--11--11--11--11--11--13--11111111-|
|-9---11--9---11--9---11--11--11--|-9---11--9---11--9---11--11--11111111-|
|-----9-------9-------9-------9---|-----9-------9-------9-------9-9-9-9--|
Verse
|--------------|
|--------------|
|--------------|
|-11-11--9--11-|
|-11-11--9--11-|
|-9--9---7--9--|

...Structure...
.Chorus x 1
.Verse  x 2
.Chorus x 1
.Verse  x 2
.Chorus x 1
.Bridge 

.Chorus x 1
.Solo! (Rhythm Plays Verse)

!!!!KEY CHANGE!!!!
.Chorus x 1
.Verse  x 2
.Chorus x 1

There You Have It 100% i think! What Do YOU Think?

Rate & Coment Please!!!!!


Tap to rate this tab
 
# A B C D E F G H I J K L M N O P Q R S T U V W X Y Z