Song name
# A B C D E F G H I J K L M N O P Q R S T U V W X Y Z

Dickies - Hideous tab

Band - The Dickies
Song - Hideous
Tabbed By : SumFX (Tyler Freear)

Amazing song and blinding solo that isnt too hard! (suprisingly)

More Dickies songs on the way....

Verse
|------------------|
|------------------|
|-777-444-99-66-11-|
|-777-444-99-66-11-|
|-555-222-77-44-9--|
|------------------|

Chorus
|-------------------|
|-------------------|
|-9----12----9---7--|
|-9----12----9---7--|
|-7----10----7---5--|
|-------------------|

Solo! (I Think This Is Really Accurate)

Trill       Rpt. etc
|----------|-------10-|-10/121212-12/131313-13/151515-15/171717-|
|-10h13p10-|-------10-|-10/121212-12/131313-13/151515-15/171717-|
|----------|-12b(14)--|-----------------------------------------|
|----------|----------|-----------------------------------------|
|----------|----------|-----------------------------------------|
|----------|----------|-----------------------------------------|

|-15-121212-17-121212-15-121212-17-121212-|-15b(17)-15b(17)-15b(17)-|
|-----------------------------------------|-------------------------|
|-----------------------------------------|-------------------------|
|-----------------------------------------|-------------------------|
|-----------------------------------------|-------------------------|
|-----------------------------------------|-------------------------|

|-7-------7-------7-------7-------7-------7-------7-------1515-|
|-10b(12)-10b(12)-10b(12)-10b(12)-10b(12)-10b(12)-10b(12)-1515-|
|--------------------------------------------------------------|
|--------------------------------------------------------------|
|--------------------------------------------------------------|
|--------------------------------------------------------------|

|----15------------------------|-18b(20)-18b(20)-18b(20)-|
|-18----18b(20)--18b(20)-18p15-|-------------------------|
|------------------------------|-------------------------|
|------------------------------|-------------------------|
|------------------------------|-------------------------|
|------------------------------|-------------------------|

|-7--------7--------7--------7-------|-7--------7--------7--------5------|
|-10b(12)--10b(12)--10b(12)--10b(12)-|-10b(12)--10b(12)--10b(21)--8b(10)-|
|------------------------------------|-----------------------------------|
|------------------------------------|-----------------------------------|
|------------------------------------|-----------------------------------|
|------------------------------------|-----------------------------------|

Okay Thats All!

I Tried To Keep The Solo Clean Looking, please comment if you don't understand!

Rate & Comments Please!!!
Tap to rate this tab
 
# A B C D E F G H I J K L M N O P Q R S T U V W X Y Z