Song name
# A B C D E F G H I J K L M N O P Q R S T U V W X Y Z

Dickies - Walk Like An Egg tab

Intro
..A............|.F...........E.........D.............
|--------------|-------------------------------2-----|
|-------2------|-----------------------------3---3---|
|-----2---2----|-------2-----------1-------2-------2-|
|---2-------2--|-----3---3-------2---2---0-----------|
|-0------------|---3-------3---2-------2-------------|
|--------------|-1-----------0-----------------------|


..D..............D
|-------2--------2------|
|-----3---3------3------|
|---2-------2----2------|
|-0--------------0------|
|-----------------------|
|-----------------------|


Verse Riff
..C.....F.G...A.....Bb..F.Bb
|-----------|-5-----6-------|
|-1---------|---5-----6---8-|
|---0-----0-|-----5-----7---|
|-----2-3---|---------------|
|-----------|---------------|
|-----------|---------------|

Chorus
.Gb.G....Gb.G....Gb.G.....B...Gb.G......G.Ab.A.Bb.B.C
|----------------------------|-----------------------|
|----------------------------|-----------------------|
|----------------------------|-----------------------|
|-------------------------4--|-----------------------|
|-4/5-5-5-4/5-5-5-4/5-5-5-2--|-4/5-5-5--5-6-7-8-9-10-|
|-2/3-3-3-2/3-3-3-2/3-3-3----|-2/3-3-3--3-4-5-6-7--8-|

Guitar Solo
|-----------|
|--15^^^^^--|
|--17~(19)--|
|--Repeat---|
|-----------|
|-----------|

End Chord
|---8-------|
|---8-------|
|---9-------|
|---8-------|
|--10--10\--|
|---8---8---|

Great song, its very funny. The end chord might be a little hard.
Tap to rate this tab
# A B C D E F G H I J K L M N O P Q R S T U V W X Y Z