Dicta License - Complex tab

Artist : Dicta License
Song : Complex
Album : Paghilom
tabbed by inochio
rynault_austria@yahoo.com


I just edited some of clypeaster's tab based on how I hear it. So most of the part 
came from his tabulation. A good start for me.



Intro:
e--------------------------------------------------------------|
b---7(swell)----- 7(swell)-----7(swell)------ 7(swell)---------|
g---7(swell)------7(swell)-----7(swell)-------6(swell)---------|
d--------------------------------------------------------------|
a--------------------------------------------------------------|
e--------------------------------------------------------------|


Verse:
e--------------------------------------------------------------|
b---7(swell)----- 7(swell)-----7(swell)------ 7(swell)---------|
g---7(swell)------6(swell)-----7(swell)-------6(swell)---------|
d--------------------------------------------------------------|
a--------------------------------------------------------------|
e--------------------------------------------------------------|
Take a piece off my mind
Look at me with those impenetrable eyes
Blinded by the memories you loathe
Sing with me against the fourth wall



e----10-------------9-------------10-------------9------------------------|
b---7---- (4x)----7-- (4x)------7   (4x)-------7  (4x)--------------------|
g----------------------------------------------------(7)------------------|
d----------------------------------------------------(7)(ring to chourus)-|
a-------------------------------------------------------------------------|
e-------------------------------------------------------------------------|
I will be pure and
Immaculately chaste
In the darkness
I will shine
Free from all disgrace


Chorus:
e--------------------------|--------------------------|
b--------------------------|--------------------------|
g---4--6/7-----------------|---4--6/7--12-------------|(2x)
d---4--6/7--5--------------|---4--6/7--12-------------|
a---2--4/5--5--------------|---2--4/5--10-------------|
e-----------3--------------|--------------------------|
Speak. these words will forever
Sail these streets of old
Make these words your own
Never again
Never to fall



(Preverse ulit):
e--------------------------------------------------------------|
b---7(swell)----- 7(swell)-----7(swell)------ 7(swell)---------|
g---7(swell)------6(swell)-----7(swell)-------6(swell)---------|
d--------------------------------------------------------------|
a--------------------------------------------------------------|
e--------------------------------------------------------------|



Verse:
e--------------------------------------------------------------|
b---7(swell)----- 7(swell)-----7(swell)------ 7(swell)---------|
g---7(swell)------6(swell)-----7(swell)-------6(swell)---------|
d--------------------------------------------------------------|
a--------------------------------------------------------------|
e--------------------------------------------------------------|
Never again should you forget
Every part of you is real
But when light hits
Your skin reveals your shadow long ago.
Numb and oblivious to the whole



e----10-------------9-------------10-------------9------------------------|
b---7---- (4x)----7-- (4x)------7   (4x)-------7  (4x)--------------------|
g----------------------------------------------------(7)------------------|
d----------------------------------------------------(7)(ring to chourus)-|
a-------------------------------------------------------------------------|
e-------------------------------------------------------------------------|
Truth that you are a secret no one knows
Gift to mother
In her eyes you were home

(Repeat Chorus)



Adlib:
e------------------------------------------|
b---------------------------2h3--3h5--5/7--|
g--2h4--2h4--2h4--2h4--2h4-----------------|
d------------------------------------------|
a------------------------------------------|
e------------------------------------------|

e------------------------------------------|
b---------------------------2h3--3h5--5/7--|
g--2h4--2h4--2h4--2h4--2h4-----------------|
d------------------------------------------|
a------------------------------------------|
e------------------------------------------|

e------------------------------------------|
b---------------------------2h3--3h5-------|
g--2h4--2h4--2h4--2h4--2h4-----------------|
d------------------------------------------|
a------------------------------------------|
e------------------------------------------|

e---------------------------------------------------|
b---------------------------2h3--3h5--5-7-----------|
g--2h4--2h4--2h4--2h4--2h4----------------7-(ring---|
d-----------------------------------------7-(ring)--|
a---------------------------------------------------|
e---------------------------------------------------|



e---------------------------------------------------------------------------|
b---7(soft strum)----- 7(soft strum)-----7(soft strum)---- 7(soft strum)----|
g---7------------------6-----------------7-----------------6----------------|
d---------------------------------------------------------------------------|
a---------------------------------------------------------------------------|
e---------------------------------------------------------------------------|
Fly away up in the clouds to chase your dreams
They never die, you say


(Repeat Chorus)
Tap to rate this tab
 
# A B C D E F G H I J K L M N O P Q R S T U V W X Y Z