Song name
# A B C D E F G H I J K L M N O P Q R S T U V W X Y Z

Dicta License - Daloy Ng Kamalayan tab

Title: Daloy Ng Kamalayan
Artist: Dicta License
Tabbed by: Earl Heisei Mendoza
Tuning: Standard
Effects: distortion, and a clean with a bit of flanger, chorus and delay
I LOVE MY MADEL...HEHEHE...I MISS HER SO MUCH SO ITO NALANG GINAWA KO...

Intro: Distortion
Riff 1
e|----------------------------------------------|
B|----------------------------------------------|
G|----------------------------------------------| 2X
D|----------------------------------------------|
A|----6-7----6-7----6-7----6-7----6-7*~---------|
E|--0------0------0------0------0---------------|
    ===============================
Riff 2
e|----------------------------------------------|
B|----------------------------------------------|
G|----------------------------------------------| 2X
D|----------------------------------------------|
A|----6*7*---6*7*---6*7*---6*7*---6*7*~---------|
E|--0------0------0------0------0---------------|
    =      =      =      =      =

Verse 1: Distortion
Riff 3
e|--x-------------------|
B|--x-------------------|
G|--x-------------------| 2X
D|--2-------------------|
A|--2-------------------|
E|--0-------------------|

  dumadaloy sa'kin....bawat ilog lawa't-

Riff 4
e|-----------------------------------|
B|-----------------------------------|
G|-----------------------------------|
D|-----------------------------------|
A|--0-0-0-5-5-6-7-7------------------|
E|-----------------------------------|
    ===============

   -tubig asin....

Pre-chorus: distortion
( do Riff 1 and Riff 2 for pre-chorus ) for the lines...(Dumadaloy sa akin,sa tinataglay 
lawak ng himpapawid...)then drums do roll on the snare before the chorus.

Chorus: Distortion
Riff 5
e|--x----x----x-----------x----x-----------------------|
B|--x----x----x-----------x----x-----------------------|
G|--x----x----x-----------x----x-----------------------|
D|--2----2----2-----------2----2-7-5-4-----------------|
A|--2----2----2-5*h7------2----2-7-3-2-----------------|
E|--0-3b-0-3b-0-----------0-3b-0-5---------------------|

 makinig sa pahiwatig ng makatang galing sa modernong paraan

riff 6
e|--x----x----x-----------x----x-----------------------|
B|--x----x----x-----------x----x-----------------------|
G|--x----x----x-----------x----x-----------------------|
D|--2----2----2-----------2----2-7-5-4-----------------|
A|--2----2----2-5*h7------2----2-7-5-4-----------------|
E|--0-3b-0-3b-0-----------0-3b-0-5-3-2-----------------|

 hanapin ang sariling ligaw, sa makitid na daan at pagtanaw...

e|--x----x----x-----------x----x-----------------------|
B|--x----x----x-----------x----x-----------------------|
G|--x----x----x-----------x----x-----------------------|
D|--2----2----2-----------2----2-7-5-4-----------------|
A|--2----2----2-5*h7------2----2-7-3-2-----------------|
E|--0-3b-0-3b-0-----------0-3b-0-5---------------------|

 ang pagmamalay mo na huwag pabayaan, nang makabangon ang perlas ng silanganan

e|--x----x----x-----------x----x-----------------------|
B|--x----x----x-----------x----x-----------------------|
G|--x----x----x-----------x----x-----------------------|
D|--2----2----2-----------2----2-7-5-4-----------------|
A|--2----2----2-5*h7------2----2-7-5-4-----------------|
E|--0-3b-0-3b-0-----------0-3b-0-5-3-2-----------------|

 isip mo at isip ko, ginintuang sandata ng pagbabago...

Verse 2: Distortion
(play Riffs 3 and 4 for the 2nd verse)
tanong ng kababayan
paano makakapag-isip ang walang laman ang tiyan?
(play Riff 1 and 2 on 2nd pre chorus after the 2nd verse)
sino ang magsasabi?
na siya ang huhubog sa kinabukasan...

2nd Chorus: Distortion
Riff 5
e|--x----x----x-----------x----x-----------------------|
B|--x----x----x-----------x----x-----------------------|
G|--x----x----x-----------x----x-----------------------|
D|--2----2----2-----------2----2-7-5-4-----------------|
A|--2----2----2-5*h7------2----2-7-3-2-----------------|
E|--0-3b-0-3b-0-----------0-3b-0-5---------------------|

 madalas na di napapansin edukasyon ngayon ay kulang sa diin...

riff 6
e|--x----x----x-----------x----x-----------------------|
B|--x----x----x-----------x----x-----------------------|
G|--x----x----x-----------x----x-----------------------|
D|--2----2----2-----------2----2-7-5-4-----------------|
A|--2----2----2-5*h7------2----2-7-5-4-----------------|
E|--0-3b-0-3b-0-----------0-3b-0-5-3-2-----------------|

 ang ating mga silid aralan, ang mga guro nagbebenta na lamang

Riff 5
e|--x----x----x-----------x----x-----------------------|
B|--x----x----x-----------x----x-----------------------|
G|--x----x----x-----------x----x-----------------------|
D|--2----2----2-----------2----2-7-5-4-----------------|
A|--2----2----2-5*h7------2----2-7-3-2-----------------|
E|--0-3b-0-3b-0-----------0-3b-0-5---------------------|

 pero di ako susuko sa ganun, pag-asa ko'y kaakibat ng aking dunong

e|--x----x----x-----------x----x-------x---------------|
B|--x----x----x-----------x----x-------x---------------|
G|--x----x----x-----------x----x-------x---------------|
D|--2----2----2-----------2----2-7-5-4-2---------------|
A|--2----2----2-5*h7------2----2-7-5-4-2---------------|
E|--0-3b-0-3b-0-----------0-3b-0-5-3-2-0---------------|

 doon tayo sa malayo tumingin, mahalin ang bukas na dadating...

Adlib: Clean,flanger and delay...
e|----------------------------------------------------------|
B|---------------------------10h12p10----10-----------------|
G|----------------------9-12----------12----12-12-----------|
D|--------------9|-9-12-------------------------------------|
A|---------9-12---------------------------------------------|
E|-8/10-12--------------------------------------------------|

e|----------------------------------------------------------|
B|----------------------------------------------------------|
G|-10/12-11-------------------------------------------------|
D|----------12----------------------------------------------|
A|-------------12-9-9h10b-9~--2-/5-/9-----------------------|
E|----------------------------------------------------------|

e|----------------------------------------------------------|
B|----------------------------------------------------------|
G|-7/9-------------5-----5----------------------------------|
D|-----9-7-5-4-4h5---4h5------------------------------------|
A|----------------------------------------------------------|
E|----------------------------------------------------------|
                                             stum an E
e|-----------------------------------12+---------0-------------------|
B|-10/12-10-8-10----------10-12+-----------------0-------------------|
G|---------------8-8hp9----------12+-------then--9-------------------|
D|----------------------9------------------------9-------------------|
A|-----------------------------------------------7-------------------|
E|-----------------------------------------------0-------------------|

Song Build-up: Distortion

e|----------------------------------------------|
B|----------------------------------------------|
G|----------------------------------------------|
D|----------------------------------------------|
A|-------6-7----6-7----6-7----6-7----6-7*~------|
E|-/\--0------0------0------0------0------------|
       ===============================

e|----------------------------------------------|
B|----------------------------------------------|
G|----------------------------------------------|
D|----------------------------------------------|
A|----6-7----6-7----6-7----6-7----6-7*~---------|
E|--0------0------0------0------0---------------|
    =============================
e|----------------------------------------------|
B|----------------------------------------------|
G|----------------------------------------------|
D|----------------------------------------------|
A|----6*7*---6*7*---6*7*---6*7*---6*7*~---------|
E|--0------0------0------0------0---------------|
    =      =      =      =      =
-then-
e|-------------|
B|-------------|
G|-------------|
D|--44445555---|
A|--44445555---|
E|--22223333---|
  Dumadaloy sa'yo...

finale Chorus: Distortion
Riff 5
e|--x----x----x-----------x----x-----------------------|
B|--x----x----x-----------x----x-----------------------|
G|--x----x----x-----------x----x-----------------------|
D|--2----2----2-----------2----2-7-5-4-----------------|
A|--2----2----2-5*h7------2----2-7-3-2-----------------|
E|--0-3b-0-3b-0-----------0-3b-0-5---------------------|

e|--x----x----x-----------x----x-------x---------------|
B|--x----x----x-----------x----x-------x---------------|
G|--x----x----x-----------x----x-------x---------------|
D|--2----2----2-----------2----2-7-5-4-2---------------|
A|--2----2----2-5*h7------2----2-7-5-4-2-/10*~~--------|
E|--0-3b-0-3b-0-----------0-3b-0-5-3-2-0---------------|

Riff 5
e|--x----x----x-----------x----x-----------------------|
B|--x----x----x-----------x----x-----------------------|
G|--x----x----x-----------x----x-----------------------|
D|--2----2----2-----------2----2-7-5-4-----------------|
A|--2----2----2-5*h7------2----2-7-3-2-----------------|
E|--0-3b-0-3b-0-----------0-3b-0-5---------------------|

e|--x----x----x-----------x----x--------x--x-----------|
B|--x----x----x-----------x----x--------x--x-----------|
G|--x----x----x-----------x----x--------x--x-----------|
D|--2----2----2-----------2----2-7-5-4--2--2-----------|
A|--2----2----2-5*h7------2----2-7-5-4--2--2-----------|
E|--0-3b-0-3b-0-----------0-3b-0-5-3-2--o--0-----------|

e|------------|
B|------------|
G|------------|
D|--7-5-4-----| then do riffs 5 and 6
A|--7-3-2-----|
E|--5---------|

| =  palm mute
| *  pinch harmonic
| /  slide up
| \  slide down
| h  hammer-on
| p  pull-off
| ~  vibrato
| +  harmonic
| x  Mute note
===============================================================================
Tap to rate this tab
 
# A B C D E F G H I J K L M N O P Q R S T U V W X Y Z