Song name
# A B C D E F G H I J K L M N O P Q R S T U V W X Y Z

Dicta License - Alay Sa Nagkamalay Noong Dekada Nobenta tab

Intro/Verse
e|---------------------------------------------------------------------||
B|---------------------------------------------------------------------||
G|---------------------------------------------------------------------||
D|--0--2---5b---7-7-5-7---7-5-7----0--0-0-2---5~---7-7-5-7---8-7-------||
A|--0--2--------7-7-5-7---7-5-7----0--0-0-2--------7-7-5-7---8-7-------||
D|--0--2--------7-7-5-7---7-5-7----0--0-0-2--------7-7-5-7---8-7-------||

Pre Chorus
e|----------------||
B|----------------||
G|----------------||
D|--0~------------||
A|--0~------------||
D|--0~------------|| then bass solo


Chorus
e|--------------------||
B|--------------------||
G|--------------------||
D|---5----8--10--0----||
A|---5----8--10--0----|| 3x
D|---5----8--10--0----||

dun sa pangatlong round..

e|--------------------------------------------------------------------||
B|--------------------------------------------------------------------||
G|--------------------------------------------------------------------||
D|---5p7---4p5---0-----5----8--10--0----------------------------------||
A|---------------------5----8--10--0----------------------------------||
D|---------------------5----8--10--0----------------------------------||

VERSE uli

Chorus agen...
e|--------------------||
B|--------------------||
G|--------------------||
D|---5----8--10--0----||
A|---5----8--10--0----|| 3x
D|---5----8--10--0----||


e|--------------------------------------------------------------------||
B|--------------------------------------------------------------------||
G|--------------------------------------------------------------------||
D|---5p7---4p5---0-----5----8--10--0-------0---h4h5p4-----------------||
A|---------------------5----8--10--0--------------------3---5---------||
D|---------------------5----8--10--0----------------------------------||

bridge

e|---------------------------------------------------------------------------|
B|---------------------------------------------------------------------------|
G|---------------------------------------------------------------------------|
D|---3-----5----0---0---h4h5p4------------3-----5----0---0---h5h7p5-4h5p4--0-|
A|---3-----5----0------------3---5--------3-----5----0-----------------------|
D|---3-----5----0-------------------------3-----5----0-----------------------|


e|--------------------------------------------------------------------------|
B|--------------------------------------------------------------------------|
G|--------------------------------------------------------------------------|
D|----3-----5----0---0---h5h7p5---/7-7-7-7-7-7-7-/10-10-10-10-10-10---------|
A|----3-----5----0----------------------------------------------------------|
D|----3-----5----0----------------------------------------------------------|

e|------------------------------------------------------------------------||
B|------------------------------------------------------------------------||
G|------------------------------------------------------------------------||
D|-5/7-7---5-4-5-4-5-7-----5/7-7---5-4-5-4-5------5/7-7---5-4-5-4-5-4-----||
A|-------------------------------------------5-------------------------5--||
D|------------------------------------------------------------------------||

2x

e|---------------||
B|---------------||
G|---------------||
D|--3333--5555---||
A|--3333--5555---||
D|--3333--5555---||

then chorus

solo

e|------------------------------------------------|
B|--8h10-10--8-7-8-7-8-10---8h10-10---8-7-8-7-----|
G|--------------------------------------------b7--|
D|------------------------------------------------|
A|------------------------------------------------|
D|------------------------------------------------|


----------8-7------------------------------8b10-----8b10----8b10------8b12-|
-8h10-10-----10-8-7-8-7------8h10-10---8-10-----8-10----8-10------8-10-----|
------------------------b7-------------------------------------------------|
---------------------------------------------------------------------------|
---------------------------------------------------------------------------|
---------------------------------------------------------------------------|


------------------------------------------------------------------------------|
8h10-10---8-7-8-7-------------------------------------------------------------|
------------------b7-----------------7--7-------------------------------------|
------------------------0------0-----0--0-------------------------------------|
------------------------0------0-----0--0-------------------------------------|
------------------------0------0-----0--0-------------------------------------|
Tap to rate this tab
# A B C D E F G H I J K L M N O P Q R S T U V W X Y Z