Song name
# A B C D E F G H I J K L M N O P Q R S T U V W X Y Z

Dicta License - Dekada tab

enjoy....
-audrey-

fs= dreyjay_17@yahoo.com
YM=suck_it_in




  e|------3----1--0---------------|
  a|-1-1--------------1-0-1---3---|
  d|-----------------------------0|
  g|------------------------------|
  b|------------------------------|
  E|------------------------------|


  e|------3--1-0------------------|
  a|--------------1-0-1-3--5------|
  d|-0-0--------------------------|
  g|------------------------------|
  b|------------------------------|
  E|------------------------------|

Tap to rate this tab
 
# A B C D E F G H I J K L M N O P Q R S T U V W X Y Z