Song name
# A B C D E F G H I J K L M N O P Q R S T U V W X Y Z

Dicta License - Complex tab

-------------------------------------------------------------------------------
Complex - Limp Wrist
Thee Official Limp Wrist Discography
-------------------------------------------------------------------------------
Tabbed by: axeslash
Email: holmzito@yahoo.com

Tuning: Standard

e|---------------------------------------------|
B|---------------------------------------------|
G|---------------------------------------------|
D|-9----9----------------9----9----------------|
A|-9----9----------------9----9----------------|
E|-7----7----------------7----7----------------| x2

There's a nice little guitar break then it comes back with:

e|---------------------------------------------------------------------|
B|-7---------------------------------7---------------------------------|
G|-9^--------------------------------9^--------------------------------|
D|---------------------------------------------------------------------|
A|---------------------------------------------------------------------|
E|---------------------------------------------------------------------|

e|-------------------------------------------------------------|
B|-------------------------------------------------------------|
G|---------------------12-12-12--------------------------9-9-9-|
D|-9----9--9--9--9--9--12-12-12-12----12--12--12--12--7--9-9-9-|
A|-9----9--9--9--9--9--10-10-10-12----12--12--12--12--7--7-7-7-|
E|-7----7--7--7--7--7-----------10----10--10--10--10--5--------| x4

e|---------------------------------------------|
B|---------------------------------------------|
G|---------------------------------------------|
D|-9----9----------------9----9----------------|
A|-9----9----------------9----9----------------|
E|-7----7----------------7----7----------------| x2

e|---------------------------------------------------------|
B|---------------------------------------------------------|
G|--------------7----7--7--7--------------10----10--10--10-|
D|-9----9--9--9-7----7--7--7-7----7--7--7-10----10--10--10-|
A|-9----9--9--9-5----5--5--5-7----7--7--7--8-----8---8---8-|
E|-7----7--7--7--------------5----5--5--5------------------| x4

e|-----------------------|
B|-----------------------|
G|-----------------------|
D|-9----9----------------|
A|-9----9----------------|
E|-7----7----------------|


| /  slide up
| \  slide down
| h  hammer-on
| p  pull-off
| ~  vibrato
| +  harmonic
| x  Mute note
===============================================================================
Tap to rate this tab
# A B C D E F G H I J K L M N O P Q R S T U V W X Y Z