Song name
# A B C D E F G H I J K L M N O P Q R S T U V W X Y Z

Dicta License - Smoke Under The Table tab

tabber: Kerbey Lumandas
song: smoke under the table
artist: dicta license

somewhat accurate yan.(",)
pwede din sa acoustic
sabayan nyo na lang yung music.

for base
|-------------------------------------|
|-------------------------------------|
|-------------------------------------|
|-------------------------------------|
|-----4----5----4----2----------------|
|---2----2----2----2-----2-2----------|

|-------------------------------------|
|-------------------------------------|
|-------------------------------------|
|-------------------------------------|
|-----4----5----4----2----------------|
|---2----2----2----2-----2-2----------|

|-------------------------------|
|-------------------------------|
|-------------------------------|
|-------------------------------|
|-----4---5---4h5---4h5---4h5---|
|---2---2---2-----2-----2-------|

for lead

|-------------------------------------|
|-------------------------------------|
|-------------------------------------|
|-----10---11---10---8----------------|
|---8----8----8----8-----8-9----------|
|-------------------------------------|



Chorus:

|-------------------------------------|
|-------------------------------------|
|-------------------------------------|  3x
|--4-4-444444/5-5-555555--------------|
|--4-4-444444/5-5-555555--------------|
|--2-2-222222/3-3-333333--------------|

|-------------------------------------|
|-------------------------------------|
|----------------1-1-111-111----------|
|--4-4-444444----2-2-222-222----------|
|--4-4-444444----2-2-222-222----------|
|--2-2-222222-------------------------|

for suggestions email me bitoy_k4s@yahoo.co.uk
Tap to rate this tab
# A B C D E F G H I J K L M N O P Q R S T U V W X Y Z