Song name
# A B C D E F G H I J K L M N O P Q R S T U V W X Y Z

Dicta License - Dotfb tab

suggestion: listen to the song

Verse
20 SECS OF NOTHINGNESS..... 

e|---------------------------------------------------------------------||
B|---------------------------------------------------------------------||
G|---------------------------------------------------------------------||
D|----2---------2--4------2-------4------2-----4-----2--4--------------||
A|----2----2----2---------2-------2------0-----0-----0-----------------||
E|---------2-----------------------------------------------------------||


e|---------------------------------------------------------------------||
B|---------------------------------------------------------------------||
G|---------------------------------------------------------------------||
D|---2-----4------2------4-----2--4-----2-----4-----2----4----5--------||
A|---0-----0-----------------------------------------------------------||
E|----------------3------3-----3--------3-----3-----0----0-------------||

e|--------------------------------||
B|--------------------------------||
G|----------------3---------------||
D|------------4-------------------||
A|--------4-----------------------||
E|--0-2---------------------------||

2X

e|---------------------------------------------------------------------||
B|--3--------------5---3-----------------------3-------3--------3------||
G|--4-----------4---------4-----------------4--------4-------4---------||
D|--4--------4---------------4-----------4--------4-------4------------||
A|--2-----0------------------------------------------------------------||
E|------------------------------------3---------0-------2--------------||

e|-------------||
B|---------3---|| 
G|-------4-----|| 
D|-----4-------|| 
A|---2---------|| 
E|-------------||

im drenched in this heavy rain................ 
e|---------------------------------------------------------------------||
B|-----------------5---3-----------------------3-------3--------3------||
G|--------------4---------4-----------------4--------4-------4---------||
D|-----------4---------------4-----------4--------4-------4------------||
A|--------0------------------------------------------------------------||
E|------------------------------------3---------0-------2--------------||

see im never letting go of this pain im feelin...................
e|---------------------------||
B|---3----3----3-------------||
G|---4----4----4----------3--||
D|---4----4----4----2-----4--||
A|---2----0---------2-----4--||
E|-------------3----------2--||

Instrumental chorus
e|--------------||
B|--------------||
G|--------------||
D|----7-s-9-----||
A|----7-s-9-----||
E|----5-s-7-----||

e|---------------------------------------------------------------------||
B|---------------------------------------------------------------------||
G|---------------------------------------------------------------------|| 4x
D|--7-s-9-----12--11----7-s-9----12---11---7----4----------------------||
A|--7-s-9-----12--11----7-s-9----12---11---7----4----------------------||
D|--5-s-7-----10--9-----5-s-9----10---9----5----2----------------------||

e|---------------------------------------------------------------------||
B|---------------------------------------------------------------------||
G|---------------------------------------------------------------------||
D|---------------------------------------------------------------------||
A|---------------------------------------------------------------------||
E|---------------------------------------------------------------------||

verse 2
e|---------------------------------------------------------------------||
B|---------------------------------------------------------------------||
G|---------------------------------------------------------------------||
D|----2----4----2--4------2-------4------2-----4-----2--4--------------||
A|----2----2----2---------2-------2------0-----0-----0-----------------||
E|---------------------------------------------------------------------||


e|---------------------------------------------------------------------||
B|---------------------------------------------------------------------||
G|---------------------------------------------------------------------||
D|---2-----4------2------4-----2--4-----2-----4-----2----4----5--------||
A|---0-----0-----------------------------------------------------------||
E|----------------3------3-----3--------3-----3-----0----0-------------||

e|--------------------------------||
B|--------------------------------||
G|----------------3---------------||
D|------------4-------------------||
A|--------4-----------------------||
E|--0-2---------------------------||

e|-------------||
B|---------3---|| 
G|-------4-----|| 
D|-----4-------|| 
A|---2---------|| 
E|-------------||

im drenched in this heavy rain................ 
e|---------------------------------------------------------------------||
B|-----------------5---3-----------------------3-------3--------3------||
G|--------------4---------4-----------------4--------4-------4---------||
D|-----------4---------------4-----------4--------4-------4------------||
A|--------0------------------------------------------------------------||
E|------------------------------------3---------0-------2--------------||

see im never letting go of this pain im feelin...................
e|---------------------------||
B|---3----3----3-------------||
G|---4----4----4----------3--||
D|---4----4----4----2-----4--||
A|---2----0---------2-----4--||
E|-------------3----------2--||

e|--------------------||
B|--------------------||
G|--------------------|| 8x
D|--7-s-9-----12--11--||
A|--7-s-9-----12--11--||
D|--5-s-7-----10--9---||

e|-------||
B|-------||
G|-------||
D|-7-s-9-||
A|-7-s-9-||
D|-5-s-7-||

e|---------------------------------------------------------------------||
B|---------------------------------------------------------------------||
G|----------------------------------------9----------------------------||
D|---5-----7-----9----------5------7------9-------5-----7----9---------||
A|---5-----7-----9----------5------7------7-------5-----7----9---------||
E|---3-----5-----7----------3------5--------------3-----5----7---------||

e|-----------||
B|-----------||
G|-----------||
D|--5---7----||
A|--5---7----||
D|--3---5----||

palm mute
e|---------||
B|---------||
G|---------||4x
D|-0-0-0-0-||
A|-0-0-0-0-||
D|-0-0-0-0-||

lead
e|--14-----------------------------------------------------------------||
B|------12--14------14bbb-12-------12----------------------------------||
G|--------------11-----------------------14----11---9-11---------------||
D|----------------------------12---------------------------------------||
A|---------------------------------------------------------------------||
E|---------------------------------------------------------------------||

e|------------------------------------||
B|------------------------------------||
G|----4----6-----7-----------4-----6--||
D|----5----7-----9-----------5-----7--||
A|------------------------------------||
E|------------------------------------||

palm mute
e|---------||
B|---------||
G|---------||8x
D|-0-0-0-0-||
A|-0-0-0-0-||
E|-0-0-0-0-||


e|-------------3--------------||
B|---3----0----3--------------||
G|---4----2----0-----------3--||
D|---4----2----0-----2-----4--||3x
A|---2----0----2-----2-----4--||
E|-------------3-----------2--||


e|---------||
B|---------||
G|-4--6--7-||
D|-4--6--7-||
A|-2--4--5-||
E|---------||
Tap to rate this tab
 
# A B C D E F G H I J K L M N O P Q R S T U V W X Y Z