Song name
# A B C D E F G H I J K L M N O P Q R S T U V W X Y Z

Dictators - Stay With Me tab

Help us improve GuitareTab! Take a short survey!
Stay with Me. Pretty catchy number. Ive never written a tab before, but here goes;


-----------------------------------------------------------|
-----------------------------------------------------------|
-2--4442--2--44424--7--9997--9--11-11-11-9--11-9--2--------|  2x
-2--2222--2--22222--7--7777--9--9--9--9--9--9--9--2--------|
-0--0000--0--00000--5--5555--7--7--7--7--7--7--7--0--------|
-----------------------------------------------------------|


---------------------------------------------------------------------------|
---------------------------------------------------------------------------|
-14--16-16-16-14--14--16-16-16-14-16-14--7--9997--9--11-11-11-9--11-9--2---|
-14--14-14-14-14--14--14-14-14-14-14-14--7--7777--9--9--9--9--9--9--9--2---|
-12--12-12-12-12--12--12-12-12-12-12-12--5--5555--7--7--7--7--7--7--7--0---|
---------------------------------------------------------------------------|
2x


---------------|
---------------|
-2-------------|
-2-------------|
-0-------------|
---------------|
Palm mute a bunch of times


--------------------|
--------------------|
-7---------------9--|
-7---------------9--|
-5---------------7--|
--------------------|

Same goes here.

-------------------|
-------------------|
-2-----7-----9-----|  2x
-2-----7-----9-----|
-0-----5-----7-----|
-------------------|

-----------------------|
-----------------------|
-6666---7777---99--9---|  2x
-6666---7777---99--9---|
-4444---5555---77--7---|
-----------------------|
                   Palm Mute a few times

---------------------------------------------|
---------------------------------------------|
-2-222222222-----7-7777-----9-9999-----------|  2x
-2-222222222-----7-7777-----9-9999-----------|
-0-000000000-----5-5555-----7-7777-----------|
---------------------------------------------|

---------------------------------------------------------------------------|
---------------------------------------------------------------------------|
-14--16-16-16-14--14--16-16-16-14-16-14--7--9997--9--11-11-11-9--11-9--2---|
-14--14-14-14-14--14--14-14-14-14-14-14--7--7777--9--9--9--9--9--9--9--2---|
-12--12-12-12-12--12--12-12-12-12-12-12--5--5555--7--7--7--7--7--7--7--0---|
---------------------------------------------------------------------------|
2x


As far as the solo goes, god only knows. Thats kind of close to the song i believe. Hope 
helps somebody out.
Related for Stay With Me tab