Song name
# A B C D E F G H I J K L M N O P Q R S T U V W X Y Z

Diddy-dirty Money - Coming Home tab

Coming Home feat. Skylar Grey
by Diddy-Dirty Money

Tab by vvrvvd

Check out my youtube channel:
http://www.youtube.com/user/VVRVVD/videos?flow=grid&view=0

POLAND

Standard Tuning 
No Capo

 Chords Used:
  G - 320003
  D - XX0232
  Bm - 224432
  A6 - 002222
                         x2
      .______G_________D__|____Bm________A6____.
E |---|----------------------------------------|
B |-0-|-3-2--0--0-3-2-----3-2-------3-2--------|
G |---|----------------2-------4--4------2-----|
D |---|----------------0-------4---------2-----|
A |---|------------------------2---------0-----|
E |---|------3---------------------------------|

          Bm      A6       Bm       A6
E |--------2----------------2-2--------|
B |-2p3-5--3--3-5----2p3--5-3---3-5----|
G |--------4------2---------4-------2--|
D |---------------2-----------------2--|
A |--------2------0---------2-------0--|
E |------------------------------------|


                         rest of the songs
      .______G__________D_______|_____Bm___________A6_______.                         
E |---|-----------------------------------------------------|
B |---|-3-2--0-----3-2-----------3-2----------3-2-----------|
G |-2-|----------0------2----2--------4---4--------2---2----|
D |---|---------0-0-----0---0-0-------4--4-4-------2--2-2---|
A |---|-------------------------------2------------0--------|
E |---|------3----------------------------------------------|

          Bm     A6        Bm       A6
E |--------2----------------2-2--------|
B |-2p3-5--3--3-5----2p3--5-3---3-5----|
G |--------4------2---------4-------2--|
D |---------------2-----------------2--|
A |--------2------0---------2-------0--|
E |------------------------------------|


           G
I'm coming home
           D   
I'm coming home
          Bm               A6
tell the World I'm coming home
         G           D           Bm            A6
Let the rain wash away all the pain of yesterday
          G            D             Bm                A6
I know my kingdom awaits and they've forgiven my mistakes
             G               D
I'm coming home, I'm coming home
            Bm               A6
tell the World that I'm coming
Tap to rate this tab
 
# A B C D E F G H I J K L M N O P Q R S T U V W X Y Z