Song name
# A B C D E F G H I J K L M N O P Q R S T U V W X Y Z

Dido - Thank You tab

Tabbed by: MadsH
Date: 07-04-2012
Tuning: Standard

This is my first tab ever and therefore also my first submission here and 
it's for the melody or vocals from the song. I think it's a pretty neat 
melody and i've looked for tabs for it, but since i couldn't find any, 
i decided to figure out the song myself and tab it.

Melody (vocals)
*********************

e|---------------------------------------------------------------|
B|---------------------------------------------------------------|
G|--3/5--5--6--3------5-------3----------5-----3-----------------|
D|-----------------6-------6------5--6------5-----3--------------|
A|---------------------------------------------------------------|
E|---------------------------------------------------------------|

e|---------------------------------------------------------------|
B|-----------------------------------4--6-------------3/4--4-----|
G|--3/5--5--6--3------5-------3-------------5--3/5------------5--|
D|-----------------6-------6-----6------------------6------------|
A|---------------------------------------------------------------|
E|---------------------------------------------------------------|

e|---------------------------------------------------------------|
B|---------------------------------------------------------------|
G|-----5-----3-------3--5----6--5----5--3/5-----------5--3-------|
D|--6-----6-------6-----------------------------3-----------6----|
A|---------------------------------------------------------------|
E|---------------------------------------------------------------|

e|---------------------------------------------------------------|
B|---------------------------------------------------------------|
G|-------5--3---------------5-------3-------5-------3------------|
D|--3------------6----3--6-------6-------6-----6-------6--5--3~--|
A|---------------------------------------------------------------|
E|---------------------------------------------------------------|

Again, this is my first tab ever and i'm very much open to feedback
Tap to rate this tab
 
# A B C D E F G H I J K L M N O P Q R S T U V W X Y Z