Song name
# A B C D E F G H I J K L M N O P Q R S T U V W X Y Z

Dido - All You Want chords

Highlighted       Show chord diagrams
Song- All You Want
Artist- Dido
Album- No Angel

Capo I

Verse I

e----------------------------------------------------------------------------|
B----------------------------------------------------------------------------|
G----------------------------------------------------------------------------|
D-0-----------------------------0--------------------------------------------|
A-----3--------0--1---3--------------3---------------------------------------|
E----------3-----------------------------3-----------------------------------|

I like to watch you sleep at night,
To hear you breath by my side,
And though sleep leaves me behind,
there's nowhere I'd rather be

D           C            Gm
And now our bed is oh so cold,
              D     C          Gm
my hands feel empty, no one to hold,
D     C                 Gm
I can sleep what side I want,
             D   C         Gm
It's not the same with you gone

C                 Gm
Oh, if you'd come home I'll let you know that

D     C      G       Bb         C       D
All..... you want is right here in this room,
C       G    Gm
All you want,
    D    C       G       Bb      C         D
And all..... you need is sitting here with you,
C     G  Gm   D
All..... you want

D               C               Gm
It's been three years one night apart,
            D     C            Gm
but in that night, you tore my heart,
D       C             Gm
If only you had slept alone,
         D    C             Gm
If those seeds had not been sown,

C                  Gm
Oh, you could come home and you would know that

D     C      G       Bb         C       D
All..... you want is right here in this room,
C       G    Gm
All you want,
D        C       G       Bb      C         D
And all..... you need is sitting here with you,
C    G   Gm   
All.....  

C           Gm  C              Gm
I hear your key turning in the door,
C          Gm      C          Gm
I won't be hearing that sound anymore,
C                Gm
And you and your sin,
C                     Gm
Can leave the way you just came in,
C                  Gm
Send my regards to her, 
C
I hope you've found

     D     C      G       Bb          C       D
That all..... you want is right there in that room,
C       G      Gm
All you want,
    D     C      G       Bb      C          D
And all..... you need is sitting there with you,
C     G  Gm  D          D      C     G
All..... you want,
Gm   D
You want


e----------------------------------------------2-----------------------------|
B----------------------------------------------3-----------------------------|
G----------------------------------------------2-----------------------------|
D-0------------------------0-------------------0-----------------------------|
A----3-------0--1---3-----------3--------------0-----------------------------|
E-------3--------------------------------------------------------------------|

I like to watch you sleep at night,
To hear you breath by my side.
Tap to rate this tab
# A B C D E F G H I J K L M N O P Q R S T U V W X Y Z