Song name
# A B C D E F G H I J K L M N O P Q R S T U V W X Y Z

Die Aerzte - Dauerwelle Vs Minipli tab

Dauerwelle vs. Minipli
                                UH!
e|---------------------------------|
H|---------------------------------|
G|---------------------------------|
D|-6-66-66-6-66-66-6-66-66-6-66----|
A|-6-66-66-6-66-66-6-66-66-6-66----|
E|-4-44-44-4-44-44-4-44-44-4-44----|


   Aaaaaaaaaaaaaaaaaaaaaaaaaaah uh!
e|---------------------------------|
H|---------------------------------|
G|---------------------------------|
D|-6-66-66-6-66-66-6-66-66-6-66----|
A|-6-66-66-6-66-66-6-66-66-6-66----|
E|-4-44-44-4-44-44-4-44-44-4-44----|


G#                      D   C#  D   C#
Dauerwelle Dauerwelle - Minipli Minipli
G#                      D   C#  D   C#
Dauerwelle Dauerwelle - Minipli Minipli
G#                      D   C#  D   C#
Dauerwelle Dauerwelle - Minipli Minipli
G#                     C# D D# E
Dauerwelle Dauerwelle 


G#                      D   C#  D   C#
Dauerwelle Dauerwelle - Minipli Minipli
G#                      D   C#  D   C#
Dauerwelle Dauerwelle - Minipli Minipli
G#                      D   C#  D   C#
Dauerwelle Dauerwelle - Minipli Minipli
G#                     C# D D# E
Dauerwelle Dauerwelle

G#
Wuff!
Tap to rate this tab
# A B C D E F G H I J K L M N O P Q R S T U V W X Y Z