Song name
# A B C D E F G H I J K L M N O P Q R S T U V W X Y Z

Die Aerzte - Niedliches Liebeslied tab

Highlighted       Show chord diagrams
---------------------------------------------------------
          Niedliches Liebeslied tab by Felle
---------------------------------------------------------

Title : Niedliches Liebeslied
Artist: Die Ärzte/Die Aerzte
Album : Jazz ist anders
Tuning: 1/2 Down

Ein ziemlich einfacher aber sehr schöner Song(besonders der Text) von JAzz ist Anders.
Als nächstes wird Deine Freundin(wäre mir zu anstrengend)getabbt!

Intro:

E-55555555--------------------5-5-5-5--------------------0---|
B-55555555--10101010-9-9-9-9--5-5-5-5--8-8-8-8--1-3-4-3--0---|
G-55555555--9-9-9-9--9-9-9-9--7-7-7-7--7-7-7-7--2-2-2-2--1---|
D-77777777--9-9-9-9--9-9-9-9--7-7-7-7--7-7-7-7--2-2-2-2--2---|
A-77777777--7-7-7-7--7-7-7-7--5-5-5-5--5-5-5-5--0-0-0-0--2---|
E-55555555-----------------------------------------------0---|

CHORDS

Verse : A F#m C#m D E

Chorus: Bm D Bm E


Order/Reihenfolge:

Intro  x1
Verse  x4
Chorus x1
Intro  x1
Verse  x8
Chorus x1
Intro  x1
verse  x4
Chorus x2
Intro  x1
Verse* x1

*=wird mit downstroked Chords gespielt
Tap to rate this tab
# A B C D E F G H I J K L M N O P Q R S T U V W X Y Z