Song name
# A B C D E F G H I J K L M N O P Q R S T U V W X Y Z

Die Aerzte - Schrei Nach Liebe tab

Help us improve GuitareTab! Take a short survey!
Song: Schrei nach Liebe
Band: Die Aerzte
Album: Die Bestie in Menschengestalt

Git 1 + 2 : Standardtuning

Intro:

Git 2
|-----------------|
|-----------------|
|-7-7-7-7-7-7-7-7-|
|-0-0-0-0-0-0-0-0-|
|-5-5-5-5-5-5-5-5-|
|-----------------|  x4
   Ahhhhhhhhhh!


|------------------------------------------------------------------------|
|------------------------------------------------------------------------|
|-7-7-7-7--7-7-7-7--7-7-7-7--7-7-7-7--3-3-3-3--3-3-3-3--5-5-5-5--5-5-5-5-|
|-7-7-7-7--7-7-7-7--7-7-7-7--7-7-7-7--3-3-3-3--3-3-3-3--5-5-5-5--5-5-5-5-|
|-5-5-5-5--5-5-5-5--5-5-5-5--5-5-5-5--1-1-1-1--1-1-1-1--3-3-3-3--3-3-3-3-|
|------------------------------------------------------------------------|
|   Git 2
|									    x4
|
|   Git 1
|------------------------------------------------------------------------|
|----------5-6---5-----------------------------5-6---8----6---5----------|
|-7---7---------------5---7------7-5--7---7--------------------------5---|
|------------------------------------------------------------------------|
|------------------------------------------------------------------------|
|------------------------------------------------------------------------|


|-------------------|
|-------------------|
|-7---(7)---5--5--5-|
|-7---(7)---5--5--5-|
|-5---(5)---3--3--3-|
|-------------------|
|   Git 2                                                                                
                                |
|   Git 1
|-------------------|
|-------------------|
|-7-----------------|
|-------------------|
|-------------------|
|-------------------|


Verse 1:
(Git 2)
|----------------------------------------------------------------------|
|----------------------------------------------------------------------|
|--7---7-----7---7------7-----7---7------3-----3---3------5-----5---5--|
|--7-7-7-7-7-7-7-7--7-7-7-7-7-7-7-7--3-3-3-3-3-3-3-3--5-5-5-5-5-5-5-5--|
|--5-5-5-5-5-5-5-5--5-5-5-5-5-5-5-5--1-1-1-1-1-1-1-1--3-3-3-3-3-3-3-3--|
|----------------------------------------------------------------------|
   pm................................................................|     x3

|-----------------------------------------------------------|
|-----------------------------------------------------------|
|-7---7-----7---7------7-----7-7----3--------5-(5)-5--------|
|-7-7-7-7-7-7-7-7--7-7-7-7-7-7-7----3--------5-(5)-5--------|
|-5-5-5-5-5-5-5-5--5-5-5-5-5-5-5-0--1--------3-(3)-3--------|
|-----------------------------------------------------------|
  pm............................|

Chorus
(no guitar on the record the chords are B  C  Dm  C  B  C  G  A  B  C  Dm  C)

Und deine Eltern - Part:

|------------------------------------------|
|------------------------------------------|
|------------------------------3-----------|
|-3-------2-------2------------3-----------|
|-1-(x16)-0-(x8)--0------------1-----------|
|------------------------------------------|
  pm............|   (Oh Oh Oh)   Arschloch!

|------------------------------------------------------------------------|
|------------------------------------------------------------------------|
|-7-7-7-7--7-7-7-7--7-7-7-7--7-7-7-7--3-3-3-3--3-3-3-3--5-5-5-5--5-5-5-5-|
|-7-7-7-7--7-7-7-7--7-7-7-7--7-7-7-7--3-3-3-3--3-3-3-3--5-5-5-5--5-5-5-5-|
|-5-5-5-5--5-5-5-5--5-5-5-5--5-5-5-5--1-1-1-1--1-1-1-1--3-3-3-3--3-3-3-3-|
|------------------------------------------------------------------------|
|   Git 2
|                   	  				  		    x2
|
|   Git 1
|------------------------------------------------------------------------|
|----------5-6---5-----------------------------5-6---8----6---5----------|
|-7---7---------------5---7------7-5--7---7--------------------------5---|
|------------------------------------------------------------------------|
|------------------------------------------------------------------------|
|------------------------------------------------------------------------|

Verse 2:
(Git 2)
|----------------------------------------------------------------------|
|--7---7-----7---7------7-----7---7------3-----3---3------5-----5---5--|
|--7-7-7-7-7-7-7-7--7-7-7-7-7-7-7-7--3-3-3-3-3-3-3-3--5-5-5-5-5-5-5-5--|
|--5-5-5-5-5-5-5-5--5-5-5-5-5-5-5-5--1-1-1-1-1-1-1-1--3-3-3-3-3-3-3-3--|
|----------------------------------------------------------------------|
   pm................................................................|     x3

|-----------------------------------------------------------|
|-----------------------------------------------------------|
|-7---7-----7---7------7-----7-7----3--------5-(5)-5--------|
|-7-7-7-7-7-7-7-7--7-7-7-7-7-7-7----3--------5-(5)-5--------|
|-5-5-5-5-5-5-5-5--5-5-5-5-5-5-5-0--1--------3-(3)-3--------|
|-----------------------------------------------------------|
  pm............................|


Chorus + Und deine Eltern - Part

Now the fuckin' amazin' solo

   Git 2 (see Intro Solo)
  D5                                     B5                C5
   Git 1
|-10------(10)-------10-12-12h13p12-10---------------------------------------|
|------------------10-----------------10-11-------------11-------------------|
|----------------------------------------------------12----12-----r12-10-12--|
|----------------------------------------------------------------------------|
|----------------------------------------------------------------------------|
|----------------------------------------------------------------------------|

   Git 2 (see Intro Solo)
  D5                                     B5                C5
   Git 1             |---3---||---3---||---3-----------------------------------|
|-------------------------10-12-13-12-13-15-13-15-17-15-17-18/20----(20)-------|
|-------13--------------10-----------------------------------------------------|
|-12/14----14\12---------------------------------------------------------------|
|------------------------------------------------------------------------------|
|------------------------------------------------------------------------------|
|------------------------------------------------------------------------------|

Chorus

Du musst deinen - Part:

|-------------------|-------------------|-------------------|
|-------3-(3)-------|-------5-(5)-------|-------6-(6)-------|
|-----3-------3-----|-----5-------5-----|-----7-------7-----|
|---3-----------3---|---5-----------5---|---7-----------7---|
|-1-----------------|-3-----------------|-5-----------------|
|-------------------|-------------------|-------------------|

|-------------------|-------------------|-------------------|
|--6--6-----5--5----|-------3-(3)-------|-------3-(3)-------|
|--7--7-----5--5----|-----3-------3-----|-----3-------3-----|
|--7--7-----5--5----|---3-----------3---|---3-----------3---|
|--5--5--0--3--3----|-1-----------------|-1-----------------|
|-------------------|-------------------|-------------------|

...lieber Kerl - Part

D|-2-|
A|-0-|   x16
  pm


|-----------------------------------|
|-----------------------------------|
|-----3---3-----3------5-----5---5--|
|-3-3-3-3-3-3-3-3--5-5-5-5-5-5-5-5--|
|-1-1-1-1-1-1-1-1--3-3-3-3-3-3-3-3--|
|-----------------------------------|
  pm..............................|

|----------------------------------------------------------------------|
|--7---7-----7---7------7-----7---7------3-----3---3------5-----5---5--|
|--7-7-7-7-7-7-7-7--7-7-7-7-7-7-7-7--3-3-3-3-3-3-3-3--5-5-5-5-5-5-5-5--|
|--5-5-5-5-5-5-5-5--5-5-5-5-5-5-5-5--1-1-1-1-1-1-1-1--3-3-3-3-3-3-3-3--|
|----------------------------------------------------------------------|
   pm................................................................|

|------------------------5---5-5-------------------------------------------|
|------------------------5---5-5-------------------------------------------|
|--------------------------------------------3---3-----3------5-----5---5--|
|-----5-----5---5------------------------3-3-3-3-3-3-3-3--5-5-5-5-5-5-5-5--|
|-5-5-5-5-5-5-5-5--7-7-7---7-----7-------1-1-1-1-1-1-1-1--3-3-3-3-3-3-3-3--|
|-3-3-3-3-3-3-3-3--5-5-5---5-----5-----------------------------------------|
  pm.............|                       pm..............................|

|-----------------------------------|
|-----------------------------------|
|-----7-----7---7------7-------5----|
|-7-7-7-7-7-7-7-7--7-7-7-7-5-5-5----|
|-5-5-5-5-5-5-5-5--5-5-5-5-3-3-3-0--|
|-----------------------------------|
  pm............................|

Und deine Freundin - Part:

|-----------|------------|
|-----------|------------|
|-3------3--|--2-----2---|
|-3------3--|--2-----2---|
|-1------1--|--0-----0---|
|-----------|------------|

|------------------------------------------|
|------------------------------------------|
|--3------------5-----------7------------7-|
|--3------------5-----------7------------7-|
|--1------------3-----------5------------5-|
|------------------------------------------|
     Arschloch!  Arschloch!  Arschloch!  ^


pm  palm muted
^   repeat fast + often
/   slide up
\   slide down
(x) let ring

chords:
A	B	C     Dm    G
|---|    |-1-|    |-0-| |-1-| |-3----|
|-2-|    |-3-|     |-1-| |-3-| |-0---|
|-2-|    |-3-|    |-0-| |-2-| |-0----|
|-2-|    |-3-|    |-2-| |-0-| |-0----|
|-0-|    |-1-|     |-3-| |---| |-2---|
|---|    |---|     |---| |---| |-3---|
Related for Schrei Nach Liebe tab