Song name
# A B C D E F G H I J K L M N O P Q R S T U V W X Y Z

Die Aerzte - Hurra tab

Help us improve GuitareTab! Take a short survey!
hey guys...this tab might be right (I really think so!!!!)...
But maybe you find some mistakes... then tell me! ;)
Great song... pretty easy! Try it....

(leave ratings and comments please...)


Intro:
A D (2x)Piano
...then guitar(2x):
e|-----------|
H|-----------|
G|-------7-7-|
D|--7-7--7-7-|
A|--7-7--5-5-|
E|--5-5------|

then(2x)...:
e|---------------|
H|---------------|
G|-----------7-7-|
D|-----7-7---7-7-|
A|-----7-7---5-5-|
E|--3~-5-5-3~----|

Pre-Intro-Solo:
e|-------------|
H|-------------|
G|--7-6--------|
D|------9-7----|
A|-------------|
E|-------------|

Intro-Solo:
e|-------------------------------------------------------------------------|
H|-------------------------------------------------------------------------|
G|---------6---------------7-6------------------6---------------7-6--------|
D|-7-7--9----9--7------7-7-----9--7-----7-7--9----9--7------7-7-----9--7---|
A|----------------9-----------------9------------------9-----------------9-|
E|-------------------------------------------------------------------------|

e|-------------------------------------------------------------------------|
H|-------------------------------------------------------------------------|
G|---------6---------------7-6------------------6---------------7-6--------|
D|-7-7--9----9--7------7-7-----9--7-----7-7--9----9--7------7-7-----9--7---|
A|----------------9-----------------9------------------9-----------------9-|
E|-------------------------------------------------------------------------|

e|------------|
H|--8-8-8-8-8-|
G|--7-7-7-7-7-|
D|--5-5-5-5-5-|
A|------------|
E|------------|

1.Verse:
f#                    D              A
Weit du noch, wie's frher war - frher war alles schlecht
    f#               D                    A
der Himmel grau, die Menschen mies - die Welt war furchtbar ungerecht
      h                  D
doch dann, dann kam die Wende - und unser Leid war zu Ende

Chorus:
A             E             f#               D
Hipp Hipp Hurra, alles ist super, alles ist wunderbar
A             E            f#             D
Hipp Hipp Hurra, alles ist besser, als es damals war

e|------------|
H|--8-8-8-8-8-|
G|--7-7-7-7-7-|
D|--5-5-5-5-5-|
A|------------|
E|------------|


2.Verse:
f#                 D              A
Frher waren wir alle traurig - wir weinten jeden Tag
   f#             D                 A
es nieselte, wir waren oft krank - jetzt ist alles total stark
       D                      A
jetzt lachen immer alle, und reien stndig Witze
     D                             E
wir sind nur noch am Baden gehen - wejen die Hitze
h                         D
und ich find es wirklich scharf - da ich das noch erleben darf

Chorus:
A             E             f#               D
Hipp Hipp Hurra, alles ist super, alles ist wunderbar
A             E            f#             D
Hipp Hipp Hurra, alles ist besser, als es gestern war
h         A                D                    E
Alle sind happy, alle sind glcklich, alle sind froh
     h                         D         E           A
und berall wo man hinguckt, Liebe und Frieden und so


Pre-Solo:
e|-----------------------------------------------------------------------|
H|-----------------------------------------------------------------------|
G|---------6---------------7-6------------------6---------------7-6------|
D|-7-7--9----9--7------7-7-----9--7-----7-7--9----9--7------7-7-----9-7--|
A|----------------9----------------9------------------9------------------|
E|-----------------------------------------------------------------------|

Solo:
e|------------------------------------------7-9---9--9--9---10-10--9---|
H|-10-10-10--9--7-7------7----------7-10-10----------------------------|
G|-------------------9-----9--9--9-------------------------------------|
D|---------------------------------------------------------------------|
A|---------------------------------------------------------------------|
E|---------------------------------------------------------------------|

e|-7-----10-9--7-----10-9--7-------12-12-12-12-12-12-12-12-14-14-14-14-|
H|---------------------------10----------------------------------------|
G|---9-----------9-----------------------------------------------------|
D|-------------------------------9-------------------------------------|
A|---------------------------------------------------------------------|
E|---------------------------------------------------------------------|

e|-14-14-14-14-16-16-16-16-16-16-16/------------------------------------|
H|----------------------------------------------------------------------|
G|----------------------------------------------------------------------|
D|----------------------------------------------------------------------|
A|----------------------------------------------------------------------|
E|----------------------------------------------------------------------|

3.Verse(only Bass plays):
A               E                f#            D
Gestern ging es allen dreckig - heute geht es steil bergauf
A               E           f#                  D
Jeder hat sechs Richtige - alle sind total gut drauf

(Guitar starts)
   A            E           f#           D
Europa, Asien, Afrika - Australien und Amerika
A                E             f#           D
 Friede, Freude, Eierkuchen - alle singen: ja, ja, ja

Chorus (only voices):
Hipp Hipp Hurra, alles ist super, alles ist wunderbar
Hipp Hipp Hurra, alles ist besser, als es gestern war

e|------------|
H|--8-8-8-8-8-|
G|--7-7-7-7-7-|
D|--5-5-5-5-5-|
A|------------|
E|------------|

Outro-Chorus:
A             E             f#               D
Hipp Hipp Hurra, alles ist super, alles ist wunderbar
A             E            f#             D
Hipp Hipp Hurra, alles ist besser, als es damals war

h          c#                D                E
Alle sind Freunde, alle sind happy, alle sind froh
      h                         D          E
und  berall wo man hinguckt, Liebe und Frieden
      h                         D          E
und  berall wo man hinguckt, Liebe und Frieden
      h                         D          E          A
und  berall wo man hinguckt, Liebe und Frieden und so

A D (2x) Piano

That's it... :)
Related for Hurra tab