Song name
# A B C D E F G H I J K L M N O P Q R S T U V W X Y Z

Die Aerzte - Ohne Dich tab

Anm.: Akkorde bzw. Akkorde-Riffs
  Intro:   Refrain +1. Teil 2. Strophe:
   C    a   G   h   C   D   a
1:----|---|-3-|-2-|-3-|-2-|-0-|
2:----|---|-3-|-3-|-5-|-3-|-1-|
3:----|---|-4-|-4-|-5-|-2-|-2-|
4:-10-|-7-|-5-|-4-|-5-|-0-|-2-|
5:-10-|-7-|-5-|-2-|-3-|---|-0-|
6:-8--|-5-|-3-|---|---|---|---|

2. Teil 1. + 2. Strophe:
   C                 D                 e                 h                 D'
1:-----------------|-----------------|-----------------|-----------------|-----------|
2:-----------------|-----------------|-----------------|-----------------|-----------|
3:-5--4--5--4--555-|-7--5--7--5--555-|-9--9--9--9--999-|-7--7--7--7--777-|-7--7--7-7-|
4:-5--4--5--4--555-|-7--5--7--5--555-|-9--9--9--9--999-|-9--9--9--9--999-|-7--7--7-7-|
5:-3--2--3--2--333-|-5--3--5--3--333-|-7--7--7--7--777-|-9--9--9--9--999-|-5--5--5-5-|
6:-----------------|-----------------|-----------------|-7--7--7--7--777-|-----------|

Intro:
C                                  a           (Der Akkorde wird durch das Tremolo zum
   Wollt' Ihr die Wahrheit hör'n?     Nein!     D erhöht!)

1x Pfeifen arrangiert für Gitarre:
1:----------7---7--8--7-------------8----|----------7---7--8--7--------10-|
2:--8---10---------------10--8--10----10-|--8---10---------------10--8----|
3:---------------------------------------|--------------------------------|
4:---------------------------------------|--------------------------------|
5:---------------------------------------|--------------------------------|
6:---------------------------------------|--------------------------------|

1.Strophe (Keine Instrumente bis zur Markierung):
G                              h                     C
  Wenn ich Dich sehe, wird mir schlecht (wird mir so schlecht)
                        a            D
Bei dem Gedanken an Dich bekomm' ich Ausschlag.
G                           h                   C
  Bitte spring doch aus dem Fenster (los spring schon).
                              a                  D
Ich steh' dann unten, und ich freu' mich auf den Aufschlag.
    C(Git. setzt ein)      D
Was haben Deine Eltern der Menschheit angetan?
C                               D
Warum legst Du Dich nicht unter eine Straßenbahn?
   e                          h
Du bist nicht zu ertragen, Du bist so widerlich!
    C              D'
Die Welt könnte so schön sein.

Refrain:
     G      h  C  D    G  h  C  D
Ohne Dich.

G(mit Pfeifen)  h  C  D
G(mit Pfeifen)  h  C  D

2.Strophe:
G                             h               C
Wenn Du irgendwann Geburtstag hast (Geburstag hast),
                     a           D
Bitte ich Dich sehr,   mich einzuladen.
    G                                 h           C
Ich schenk' Dir ein paar Schuhe aus Beton (Salamander),
    C                          a              D
Die ziehst Du an (hahaha!) und dann gehen wir baden.
C                       D
Eine tote Qualle hat in etwa Dein Niveau.
    C                           D    
Mit der Visage wirst Du Star in jeder Monsterschow.
e                              h
Fahr zur Hölle, fall tot um, begreifst Du mich denn nicht?
    C              D'
Die Welt könnte so schön sein. 


Refrain:
     G      h  C  D    G  h  C  D
Ohne Dich.

G(mit Pfeifen)  h  C  D
G(mit Pfeifen)  h  C  D
G(mit Pfeifen)  h  C  D
G(mit Pfeifen)  h  C  D     G G  GGG  GGGG
Tap to rate this tab
# A B C D E F G H I J K L M N O P Q R S T U V W X Y Z