Guitaretab - guitar tabs
Song name
# A B C D E F G H I J K L M N O P Q R S T U V W X Y Z

Die Aerzte - Saufen tab

Highlighted       Show chord diagrams
Saufen
======
(M/T:Urlaub)


Anm.:Das Lied ist im Intro und den Strophen mit einer Akustikgitarre begleitet, der Refrain da-
gegen ist mit einer verzerrten E-Gitarre zu spielen! Akkorde dazu:
   C   G   G7  C7  F   C#  G# G#7 C#7  F#
1:-0-|-3-|-3-|-0-|-1-|-4-|-4-|-4-|-4-|-2-|
2:-1-|-3-|-5-|-1-|-1-|-6-|-4-|-7-|-6-|-2-|
3:-0-|-4-|-4-|-3-|-2-|-6-|-5-|-5-|-4-|-3-|
4:-2-|-5-|-3-|-2-|-3-|-6-|-6-|-4-|-6-|-4-|
5:-3-|-5-|-5-|-3-|-3-|-4-|-6-|-6-|-4-|-4-|
6:---|-3-|-3-|---|-1-|---|-4-|-4-|---|-2-|


Intro:
   C
1:---0-|---0-|---0-|---0-|---0-|---0-|-0---|-------|
2:---1-|---1-|---1-|---1-|---1-|---1-|-1---|-------|
3:-----|-----|-----|-----|-----|-----|-----|-------|
4:-----|-----|-----|-----|-----|-----|-----|-------|
5:-3---|-----|-3---|-----|-3---|-----|-3---|-----2-|
6:-----|-3---|-----|-3---|-----|-3---|-----|-3-5---|


1.Strophe:
C                          G                
Ich und meine Kumpels, wir sind ein duftes Team
         G                  C
Wir sind regelrechte Alkoholvernichtungsmaschin'
    C              C7        F
Wir saufen bis zum Umfall'n, alle machen mit
    G                                 G
Und wenn wir dann besoffen sind, dann sing'n wir unser Lied


Begleitung zu den Strophen:
   C                       G                       G
1:---0-|---0-|---0-|---0-|-----|-----|-----|-----|-----|-----|-----|-----|
2:---1-|---1-|---1-|---1-|---3-|---3-|---3-|---3-|---3-|---3-|---3-|---3-|
3:-----|-----|-----|-----|---4-|---4-|---4-|---4-|---4-|---4-|---4-|---4-|
4:-----|-----|-----|-----|-----|-----|-----|-----|-----|-----|-----|-----|
5:-3---|-----|-3---|-----|-5---|-5---|-----|-5---|-----|-5---|-----|-5---|
6:-----|-3---|-----|-3---|-3---|-3---|-3---|-----|-3---|-----|-3---|-----|
   C                       C           C7          F
1:---0-|---0-|---0-|---0-|---0-|---0-|-----|-----|---1-|---1-|---1-|---1-|
2:---1-|---1-|---1-|---1-|---1-|---1-|---1-|---1-|---1-|---1-|---1-|---1-|
3:-----|-----|-----|-----|-----|-----|---3-|---3-|-----|-----|-----|-----|
4:-----|-----|-----|-----|-----|-----|-----|-----|-----|-----|-3---|-----|
5:-3---|-----|-3---|-----|-3---|-----|-3---|-----|-----|-3---|-----|-3---|
6:-----|-3---|-----|-3---|-----|-3---|-----|-3---|-1---|-----|-----|-----|
   G                       G
1:-----|-----|-----|-----|-----|-----|------3-|
2:---3-|---3-|---3-|---3-|---3-|---3-|-----3--|
3:---4-|---4-|---4-|---4-|---4-|---4-|----4---|
4:-----|-----|-----|-----|-----|-----|---5----|
5:-5---|-5---|-----|-5---|-----|-5---|--5-----|
6:-3---|-----|-3---|-----|-3---|-----|-3------|

[ Tab from: http://www.guitaretab.com/d/die-aerzte/171794.html ]
Refrain:
          C                                  G
Komm, wir gröhlen noch ein bißchen, denn ich bin schon wieder voll
                       G7           C
Komm, wir singen übers Saufen, über Bier und Alkohol
                    C7                F
Von dem ständigen Gebrülle kriegt man einen Riesendurst
              G                                           C
Wenn wir dann was gesoffen haben, geht das Gröhlen wieder los


Interlude:
   C
1:---0-|---0-|---0-|---0-|
2:---1-|---1-|---1-|---1-|
3:-----|-----|-----|-----|
4:-----|-----|-----|-----|
5:-3---|-----|-3---|-----|
6:-----|-3---|-----|-3---|


2.Strophe:
C                               G
Nüchternheit ist blöd, nüchtern sein tut mir nichts bring',
     G                             C
denn im nüchternen Zuuuuustand, da kann man nicht gut sing'
  C              C7                F
Besoffenheit is' super und schlägt Nüchternheit um Läng'
    G                                  G
Und hol's der Teufel, schon is' wieder Zeit für den Refrain!


Refrain:
          C                                  G
Komm, wir gröhlen noch ein bißchen, denn ich bin schon wieder voll
                       G7           C
Komm, wir singen übers Saufen, über Bier und Alkohol
                    C7                F
Von dem ständigen Gebrülle kriegt man einen Riesendurst
              G                            G7             C
Wenn wir dann was gesoffen haben, geht das Gröhlen wieder los

          C#                                 G#
Komm, wir gröhlen noch ein bißchen, denn ich bin schon wieder voll
                       G#7          C#
Komm, wir singen übers Saufen, über Bier und Alkohol
                    C#7               F#
Von dem ständigen Gebrülle kriegt man einen Riesendurst
              G#
Wenn wir dann was gesoffen haben, geht das

C#                                 G#
gröhlen noch ein bißchen, denn ich bin schon wieder voll
                       G#7          C#
Komm, wir singen übers Saufen, über Bier und Alkohol
                    C#7               F#
Von dem ständigen Gebrülle kriegt man einen Riesendurst
              G#
Wenn wir dann was gesoffen haben, geht das

C#                                 G#
gröhlen noch ein bißchen, denn ich bin schon wieder voll
                       G#7          C#
Komm, wir singen übers Saufen, über Bier und Alkohol
                    C#7               F#
Von dem ständigen Gebrülle kriegt man einen Riesendurst
              G#
Wenn wir dann was gesoffen haben, geht das

C#                                 G#
gröhlen noch ein bißchen, denn ich bin schon wieder voll
                       G#7          C#
Komm, wir singen übers Saufen, über Bier und Alkohol
                    C#7               F#
Von dem ständigen Gebrülle kriegt man einen Riesendurst
              G#
Wenn wir dann was gesoffen haben, geht das

C#                                 G#
gröhlen noch ein bißchen, denn ich bin schon wieder voll
                       G#7          C#
Komm, wir singen übers Saufen, über Bier und Alkohol...
Related for Saufen tab
×
Saufen