Song name
# A B C D E F G H I J K L M N O P Q R S T U V W X Y Z

Die Aerzte - Himmelblau chords

Highlighted       Show chord diagrams
========================
 Die Ärzte - Himmelblau
========================
 Tabbed by CT

Die Gitarre wird einen Halbton tiefer gestimmt (auf 430Hz).

   G5  A5  E5  F5  G  Asus2  e   F
e|-x-|-x-|-x-|-x-|-3-|--0--|-0-|-1-|
B|-x-|-x-|-x-|-x-|-3-|--0--|-0-|-1-|
G|-x-|-x-|-x-|-x-|-0-|--2--|-0-|-2-|
D|-5-|-7-|-2-|-3-|-0-|--2--|-2-|-3-|
A|-5-|-7-|-2-|-3-|-2-|--0--|-2-|-3-|
E|-3-|-5-|-0-|-1-|-3-|--0--|-0-|-1-|




Intro: 4x

e|----3------3------3--|----3------3------3--|----3------3------3--|----3------3------3--|
B|------3------3-------|------1------1-------|------1------1-------|------0------0-------|
G|--0------0------0----|--2------2------2----|--0------0------0----|--0------0------0----|
D|---------------------|---------------------|---------------------|---------------------|
A|---------------------|---------------------|---------------------|---------------------|
E|---------------------|---------------------|---------------------|---------------------|


Verse:

  G5		      A5		  E5		      F5
e|-------------------|-------------------|-------------------|-------------------|
B|-------------------|-------------------|-------------------|-------------------|
G|-------------------|-------------------|-------------------|-------------------|
D|--5-5-5-5-5-5-5-5--|--7-7-7-7-7-7-7-7--|--2-2-2-2-2-2-2-2--|--3-3-3-3-3-3-3-3--|
A|--5-5-5-5-5-5-5-5--|--7-7-7-7-7-7-7-7--|--2-2-2-2-2-2-2-2--|--3-3-3-3-3-3-3-3--|
E|--3-3-3-3-3-3-3-3--|--5-5-5-5-5-5-5-5--|--0-0-0-0-0-0-0-0--|--1-1-1-1-1-1-1-1--|

		G5	A5
Der Himmel ist blau
	E5			 F5
Und der Rest deines Lebens liegt vor dir.
		  G5	 A5
Vielleicht wär es schlau,
	 E5	       F5
Dich ein letztes Mal umzusehen
		G5	  A5
Du weisst nicht genau - warum
     E5			      F5
Aber irgendwie packt dich die Neugier.
		G5	A5
Der Himmel ist blau
	E5			F5
Und der Rest deines Lebens wird schön, yeah.


Chorus:

G Asus2 e F G Asus2 e F


Verse:


Du hast ein gutes Gefühl,
Du denskt an all die schönen Zeiten.
Es ist fast zu viel,
Jetzt im moment neben Dir zu stehen.
Du hast kein klares Ziel,
Aber millionen Möglichkeiten.
Ein gutes gefühl -
Und du weisst, es wird gut für dich ausgeh'n, yeah.


Chorus:

Der Himmel ist blau - yeah.

Der Himmel ist blau


Verse:


Die Welt gehört Dir:
Was wirst du mit ihr machen?
Verrat es mir - 
Spürst, du wie die Zeit verrinnt"
Jetzt stehst du hier
Und du hörst nicht auf zu lachen.
Die Welt gehört Dir - 
Und der Rest deines Lebens beginnt, yeah.


Chorus:

Der Himmel ist blau, so blau, so blau, so blau, so blau, so blau - yeah.
Tap to rate this tab
# A B C D E F G H I J K L M N O P Q R S T U V W X Y Z