Song name
# A B C D E F G H I J K L M N O P Q R S T U V W X Y Z

Die Aerzte - Deine Schuld tab

-------------------------------------------------------------------------------
                                Deine Schuld - Ärzte
-------------------------------------------------------------------------------
Tabbed by: Martin Messner
Email: bigbonsai@hotmail.de

Tuning: Standard

//////////////////////////////////////////////
//                                          //
//  RATING THIS TAB TAKES ABOUT 5 SECONDS   //
//  AND HELPS ME TO IMPROVE MY WORK         //
//                                          //
//////////////////////////////////////////////


The problem of the current versions is the difference between "german" and "international" chords.
An international "B",       is an german "H".
An international "B flat",  is an german "B".
An international "B sharp", is an german "His".

=D it's weird, I know.

I will use international chords ^^


the order of the song:

[Intro]
[Preverse]
[Verse]
[Chorus]
[Preverse]
[Verse]
[Chorus]
[Brigde]
[Intro] (the quiet part)
[Verse]
[Chorus] x2



~~~~~~~~~~~~~~~~~~~~~~~~~~~~~~~~~~~~~~~~~~~~~~~~~~~~~~~~~~~~~~~~~~~~~~~~~~~~~~~~~~~~~[Intro]

Guitar (with *chorus* and *phaser*-effect)
e|--------------------------------------|
B|------2-----------6-------------------|
G|--------3~----------6~--------5-------| repeating
D|----3-----------6---------------6~----|
A|--1-----------4-------------6---------|
E|--------------------------4-----------|
    b(flat)m    D(flat)     A(flat)     

      
Bass
e|---------------------------------------------------------------------------||
B|---------------------------------------------------------------------------||
G|---------------------------------------------------------------------------||
D|---------------------------------------------------------------------------||
A|-------------------4-4---4-----4---3------------------4-4---4-----4---3----||
E|4-6-6---6-4h6-6--6---------4-4---4---6-6---6-4h6-6--6---------4-4---4------||
    |                |       |         |                |       |             |
    |                |       |         |                |       |             |
    b(flat)m         D(flat) A(flat)   b(flat)m         D(flat) A(flat)       |
    |                |       |         |                |       |             |
    |                |       |         |                |       |             |
e|---------------------------------------------------------------------------||
B|---------------------------------------------------------------------------||
G|-------------------1-1---1-1--------------------------1-1---1-1------------||
D|--3-3---3-1h3-3--3-----------------1-3-3---3-1h3-3--3----------------------||
A|---------------------------------------------------------------------------||
E|---------------------------------------------------------------------------||
Guitar 2


~~~~~~~~~~~~~~~~~~~~~~~~~~~~~~~~~~~~~~~~~~~~~~~~~~~~~~~~~~~~~~~~~~~~~~~~~~~~~~~~~~~~~[PreVerse]

Guitar (chords)
e|----------------------------------------------||
B|-----------6----------------------------------||
G|-3---------5-----8------3-----------------8---||
D|-3---------3-----8------3---------6-------8---||
A|-1---------------6------1---------6-------6---||
E|----------------------------------4-----------||
   |         |     |      |         |       |    |
   |         |     |      |         |       |    |
   |         |     |      |         |       |    |
e|----------------------------------------------||
B|----------------------------------------------||
G|----------------------------------------------||
D|------------3-3-3-1---------------------------||
A|--1-3-4-3-1---------4-3-1-3-4-3-1---------1---||
E|----------------------------------4-4-1-4-----||
Guitar (solo)

~~~~~~~~~~~~~~~~~~~~~~~~~~~~~~~~~~~~~~~~~~~~~~~~~~~~~~~~~~~~~~~~~~~~~~~~~~~~~~~~~~~~~[Verse]

Guitar (chords)
e|------------------------------------| ---------------|
B|------------------------------------| ---------------|
G|-3----6-----3-------8--3----6--8----| ---------------|
D|-3----6--6--3----6--8--3----6--8----| 4-4-4-4-4-4----|
A|-1----4--6--1----6--6--1----4--6----| 4-4-4-4-4-4----|
E|---------4-------4------------------| 2-2-2-2-2-2----|
                                       "oh-oh-ohhhhh..."

Bass continues similar to the Intro.


~~~~~~~~~~~~~~~~~~~~~~~~~~~~~~~~~~~~~~~~~~~~~~~~~~~~~~~~~~~~~~~~~~~~~~~~~~~~~~~~~~~~~[Chorus]

"...deine Schuld"
e|---------------------------------------------|
B|---------------------------------------------|
G|--8--8--6--6--9--9--4--4--8--8-------4~------|
D|--8--8--6--6--9--9--4--4--8--8--4--4-4~------|
A|--6--6--4--4--7--7--2--2--6--6--4--4-2~------|
E|--------------------------------2--2---------|


e|----------------|
B|----------------|
G|--6-6-6-6-6-6-6-|"Wenn sie so bleibt... woh!"
D|--6-6-6-6-6-6-6-|
A|--4-4-4-4-4-4-4-|
E|----------------|


~~~~~~~~~~~~~~~~~~~~~~~~~~~~~~~~~~~~~~~~~~~~~~~~~~~~~~~~~~~~~~~~~~~~~~~~~~~~~~~~~~~~~[Bridge]


"Weil jeder der die Welt nicht ändern will..."-Part

Guitar (chords)
e|------------------------------------------------------------------||
B|------------------------------------------------------------------||
G|-8--8--8--8--6--6--6--6--4--4--4--4--4--4--4--4--6~------6-6-6-6--||
D|-8--8--8--8--6--6--6--6--4--4--4--4--4--4--4--4--6~------6-6-6-6--||
A|-6--6--6--6--4--4--4--4--2--2--2--2--2--2--2--2--4~------4-4-4-4--||
E|------------------------------------------------------------------||
                                                                     |
                                                                     |
e|------------------------------------------------------------------||
B|-------------------------------------5--4-------------------------||
G|-8--8--8--8--6--6--8--4--4--4--4--4--------4--6--6\1--------------||
D|------------------------------------------------------------------||
A|------------------------------------------------------------------||
E|------------------------------------------------------------------||
Guitar (Solo)




See you =)
bigbonsai@hotmail.de

Martin Messner
Tap to rate this tab
# A B C D E F G H I J K L M N O P Q R S T U V W X Y Z