Song name
# A B C D E F G H I J K L M N O P Q R S T U V W X Y Z

Die Aerzte - Schlaflied tab

song:		Schlaflied
interpret:	Die Ärzte
capo:		0
album:		Debil (1984)
setting:	Standart

ORIGINAL VERSION live at Rock'n Roll Realschule

http://www.youtube.com/watch?v=B1tkVcRydTM&feature=related

    C     C/B   Em    Em7    Am
e|--8---|--8--|--7--|--7--|--5--|
B|--8---|--8--|--8--|--8--|--5--|
G|--9---|--9--|--9--|--7--|--5--|
D|--10--|--9--|--9--|--9--|--7--|
A|--10--|--x--|--7--|--7--|--7--|
E|--8---|--x--|--x--|--x--|--5--|


===================================================

intro

e|--------|
B|--------|
G|--------|
D|----7-9-|
A|-10-----|
E|--------|

verse

   C             C/B          Am           Em
e|--------8------------8------------5------------7-----|
B|------8---8--------8---8--------5---5--------8---8---|
G|----9-------9----9-------9----5-------5----9-------9-|
D|-10------------9------------7------------------------|
A|-----------------------------------------7-----------|
E|-----------------------------------------------------|

   Am           Em           Em7
e|-------5------------7------------7------------7-----|
B|-----5---5--------8---8--------8---8--------8---8---|
G|---5-------5----9-------9----7-------7----7-------7-|
D|-7-------------------------9------------9-----------|
A|--------------7-------------------------------------|
E|----------------------------------------------------|


Schlaf mein Kindchen, schlafe ein
die Nacht, sie schaut zum Fenster rein
der runde Mond, der hat dich gerne
und es leuchten Dir die Sterne
schlaf mein kleines, träume süß
bald bist Du im Paradies

Denn gleich öffnet sich die Tür
und ein Monster kommt zu Dir
mit seinen elf Augen schaut es Dich an
und schleicht sich an dein Bettchen ran
Du liegst still da, bewegst Dich nicht
das Monster zerkratzt Dir dein Gesicht

Seine Finger sind lang und dünn
wehr Dich nicht, es hat keinen Sinn
und es kichert wie verrückt
als es deinen Hals zudrückt! - Du schreist
doch Du bist allein zu Haus
das Monster sticht Dir die Augen aus

Dann bist Du still und das ist gut
es beist Dir in den hals und trinkt dein Blut
ohne Blut bist Du bleich wie Kreide
dann frisst es deine Eingeweide
dein kleines Bettchen von Blut ganz rot
die Sonne geht auf und Du bist tod

Schlaf mein Kindchen, schlaf jetzt ein
am Himmel stehen die Sternelein
schlaf mein Kleines schlafe schnell
dein Bettchen ist ein Karusell
schlaf mein kindchen, schlaf jetzt ein
sonst kann das Monster nicht hinein

===================================================

tabbed by Master_Pi
Tap to rate this tab
# A B C D E F G H I J K L M N O P Q R S T U V W X Y Z