Song name
# A B C D E F G H I J K L M N O P Q R S T U V W X Y Z

Die Aerzte - Nichts In Der Welt chords

Highlighted       Show chord diagrams
**Ärzte **  ** Nichts in der Welt **

Info:
hab das lied mal aus dem "Bäst of Songbook" abgetippt, hab jetzt mal die 
"richtige" version des lied online gestellt ;-)

Falls ihr Kritik, Lob oder Verbesserungen los werden wollt dann an adadi2@web.de 

Hab das für alle ärztefans und allen denen das lied gefällt und natürlich auch als 
erinnerung an ein mädchen erstellt...na dann viel spaß:-D 

Nichts in der Welt - Die Ärzte


Akkorde:

  em  C   G   D <-Strophe
E|-0---0---3---2----|
B|-0---1---0---3----|
G|-0---0---0---2----|
D|-2---2---0---0----|
A|-2---3---2---0----|
E|-0---0---3---x----|

  F   A    Asus2    Am     H (Hsus4)  
E|-1---0------0-------0-----2-(--x--)|
B|-1---2------0-------1-----4-(--5--)|
G|-2---2------2-------2-----4-(--4--)|
D|-3---2------2-------2-----4-(--4--)|
A|-3---0------0-------0-----2-(--2--)|
E|-1---0------0-------0-----2-(--x--)|




             em          C                           G
Es ist vorbei und der Himmel ist schwarz, weil die Sonne hier nie wieder
       D
scheint

             em            C                          G                     D
Es ist vorbei, doch ich hoffe, dass das, was uns trennte, uns wieder vereint

             em         C                      G                        D
Es ist vorbei und nichts in der Welt wird es je wieder gutmachen können

             em              C                     G                      D
Es ist vorbei - wenn ich könnte, dann würde ich vor meinem Leben wegrennen


                         C                       em
Würd' die Augen verschließen und ich würde probieren

           C              D      em
meine Gefühle einfach zu ignorieren

                C              F     em
Ich will so kalt sein, dass alle erfrieren

                        A                            Hsus4(1takt)   H(1takt)
Will mich nie mehr verlieben, um nie mehr zu verliern

   C                    em    Am           em  Am  
Es dauert noch, bis ich begreife, was das heißt

(wie oben : em, C, G, & D)
Es ist vorbei, ich weiß nicht, warum - sag mir, was hab ich falsch gemacht
Es ist vorbei, du hast mein Herz zerfetzt und dir gar nichts dabei gedacht

              C                                  em
Du bist so grausam - darum(/warum) liebe ich dich(?)

                    C                   D        em 
Obwohl ich doch weiß, dass du nicht gut bist für mich

           C           F          em
Meine Gefühle sind an und für sich

               A   Asus2                        Hsus4(1takt)  H(1takt)
lächerlich einfach        und einfach lächerlich

      C            em  Am          em     Am
Weil jeder Gedanke nur um das Eine kreist:

  em               A                C(eigtl C9)   
|   Es ist vorbei,  vorbei, vorbei!              | x4

--Solo:----------------

E||-|-------------|------------|--------------------------|-------------| 
B||-|°------------|---------15_|15-15-13-13-12---------15_|-------------| 
G||-|--12--14--14/|16---14-----|--------------------------|-------------| 
D||-|-------------|------------|----------------14-14-----|-------------| 
A||-|°------------|------------|--------------------------|-------------| 
E||-|-------------|------------|--------------------------|-------------|

E|-------------------------|----------------|-|| 
B|_15-15-13-13-12----------|---------------°|-|| 
G|----------------14-12-14_|_14--12-14--14/-|-||  und das ganze nochmal
D|-------------------------|----------------|-||
A|-------------------------|---------------°|-|| 
E|-------------------------|----------------|-||  



   full     full       <---bending
    ^       ^---\
E|--|-------|----|---------|---------------|
B|--|-------|----v---------|---------------|
G|-14------14---14--12-----|---------------| 
D|----------------------14_|14-------------|
A|-------------------------|---------------|
E|-------------------------|---------------| 
    (D)                     (em)            (C)  
        Es ist   vor -  bei,_______doch idio - tischerweise 

         G                      D
will ich immer noch bei dir sein

(C/D    D )  em             C                          G                     
Es ist vorbei - und ich will nicht begreifen: Jeder Mensch ist für immer

      D
allein

 
      C/D  D             C
Liebe ist nur ein Traum, eine Idee und nicht mehr

em                      C           D       em 
  Tief im Inneren bleibt jeder einsam und leer

                        C                F  em
  Es heißt, dass jedes Ende auch ein Anfang wär
 
                       A   Asus2                             Hsus4 H
  Doch warum tut es so weh        und warum ist es so schwer?
 
      C                    em     Am      em   Am  
  Ich lasse dich gehen, auch wenn es mich zerreißt


  em               A                 C(C9) 
|    Es ist vorbei,   vorbei, vorbei!    | x4 


              em          C                      G                       D
 Es ist vorbei  und nichts in der Welt wird es je wieder gutmachen können

  ^                                       ^ 
|*| nur noch einmal anschlagen die griffe | *|
Tap to rate this tab
 
# A B C D E F G H I J K L M N O P Q R S T U V W X Y Z