Song name
# A B C D E F G H I J K L M N O P Q R S T U V W X Y Z

Die Aerzte - Tamagotchi tab

-----------------------------------------------------------------------------
                             Tamagotchi - Die Aerzte
-----------------------------------------------------------------------------
Tabbed by: Jediroman
Email: klavionik@mail.com

Tuning: EADBGE

E |----------------|----------------------------|----------------|
B |--9--8--6-------|--6--8--6-------------------|--9--8--6-------|
G |-----------8----|-----------8--5-------------|-----------8----|
D |----------------|----------------------------|----------------|
A |----------------|----------------------------|----------------|
E |----------------|----------------------------|----------------|

E |----------------------------|----------------|-----------6----|
B |--6--8--6-------------------|--9--8--6-------|--9--6--9-------|
G |-----------8--5-------------|-----------8----|----------------|
D |----------------------------|----------------|----------------|
A |----------------------------|----------------|----------------|
E |----------------------------|----------------|----------------|

E |--8----|--6----|
B |-------|-------|
G |-------|-------|
D |-------|-------|
A |-------|-------|
E |-------|-------|
Tap to rate this tab
# A B C D E F G H I J K L M N O P Q R S T U V W X Y Z