Song name
# A B C D E F G H I J K L M N O P Q R S T U V W X Y Z

Die Aerzte - Waldspaziergang Mit Folgen tab

Intro and Verse:

      Find your own Rhythm 
E:----------------------------------------------------|
H:----------------------------------------------------|
G:-5-5-x-5---10-8-10--x-x-x-x-----------5-3-5-x-x-x-x-|
D:-5-5-x-5---10-8-10--x-x-x-x--8-8-x-8--5-3-5-x-x-x-x-|
A:-3-3-x-5----8-6--8--x-x-x-x--8-8-x-8--3-1-3-x-x-x-x-|
E:-----------------------------8-8-x-8----------------|

Chorus:

E:--------------------------------|
H:--------------------------------|
G:-5-5-x-5-------------10-10-10---|
D:-5-5-x-5---8-8-x-8---10-10-10---| starts with the C-power Chords again
A:-3-3-x-5---8-8-x-8---8--8--8----|
E:-----------8-8-x-8--------------|  



Play this fast! ( Except for the ~~~ parts, you know what I mean)
          
E:-----8--8--8--8--8--8~----|
H:-----11-11-11-11-11-8~----|
G:-5~~~9--9--9--9--9--9~----|
D:-5~~~8--8--8--8--8--8~----|
A:-3~~~10-10-10-10-10-10~---|
E:-----8--8--8--8--8--8-~---|         


-8--8--8--8----6-6-x-6~--8--8--8---------------------------|
-10-10-10-10---8-8-x-8~--10-10-10--------------------------|
-10-10-10-10---8-8-x-8~--10-10-10------10p8-----8----------|
-10-10-10-10---8-8-x-8~--10-10-10-----------10-----10~~~~~-|
-8--8--8--8----6-6-x-6~--8--8--8---------------------------|
-8--8--8--8----6-6-x-6~--8--8--8---------------------------|






As I said, listen to the song and find your Rythm!
Tap to rate this tab
 
# A B C D E F G H I J K L M N O P Q R S T U V W X Y Z