Song name
# A B C D E F G H I J K L M N O P Q R S T U V W X Y Z

Die Aerzte - Lied Vom Scheitern tab

Verse

|---------------------------------------------------------------|
|---------------------------------------------------------------|
|9-9-9-9-9-9-9-9-4-4-4-4-4-4-4-4-6-6-6-6-6-6-6-6----------------|
|-----------------------------------------------7-7-7-7-7-7-7-7-|
|7-7-7-7-7-7-7-7-2-2-2-2-2-2-2-2-4-4-4-4-4-4-4-4----------------|
|-----------------------------------------------5-5-5-5-5-5-5-5-|

----------------------------------------------------------------|
----------------------------------------------------------------|
9-9-9-9-9-9-9-9-4-4-4-4-4-4-4-4-9-9-9-9-9-9-9-9-4-4-4-4-4-4-4-4-|(play 2x times)
----------------------------------------------------------------|
7-7-7-7-7-7-7-7-2-2-2-2-2-2-2-2-7-7-7-7-7-7-7-7-2-2-2-2-2-2-2-2-|
----------------------------------------------------------------|

Pre-Chorus

|---------------------------------------------------------------|
|---------------------------------------------------------------|
|--------------------------------6-6-6-6-6-6-6-6-7-7-7-7-7-7-7-7|
|7-7-7-7-7-7-7-7-7-7-7-7-7-7-7-7--------------------------------|
|--------------------------------4-4-4-4-4-4-4-4-5-5-5-5-5-5-5-5|
|5-5-5-5-5-5-5-5-5-5-5-5-5-5-5-5--------------------------------|

Chorus

|---------------------------------------------------------------|
|---------------------------------------------------------------|
|6-6-6-6-6-6-6-6-----------------9-9-9-9-9-9-9-9-4-4-4-4-4-4-4-4| (play 2x times)
|----------------7-7-7-7-7-7-7-7--------------------------------|
|4-4-4-4-4-4-4-4-----------------7-7-7-7-7-7-7-7-2-2-2-2-2-2-2-2|
|----------------5-5-5-5-5-5-5-5--------------------------------|

|----------------------------------------------------------------|
|----------------------------------------------------------------|
|6-6-6-6-6-6-6-6-----------------9-9-9-9-9-9-9-9-----------------|
|----------------7-7-7-7-7-7-7-7-----------------6-6-6-6-6-6-6-6-|
|4-4-4-4-4-4-4-4-----------------7-7-7-7-7-7-7-7-----------------|
|----------------5-5-5-5-5-5-5-5-----------------4-4-4-4-4-4-4-4-|

----------------------------------------------------------------|
----------------------------------------------------------------|
----------------------------------------------------------------|
7-7-7-7-7-7-7-7-7-7-7-7-7-7-7-7-7-7-7-7-7-7-7-7-3-------5-------|
----------------------------------------------------------------|
5-5-5-5-5-5-5-5-5-5-5-5-5-5-5-5-5-5-5-5-5-5-5-5-1-------5-------|

Solo

|----------------------0-2|
|--------------------1----|
|----------9-8-6-4-2------|
|9----9-------------------|
|--11---11----------------|
|-------------------------|
Tap to rate this tab
# A B C D E F G H I J K L M N O P Q R S T U V W X Y Z