Song name
# A B C D E F G H I J K L M N O P Q R S T U V W X Y Z

Die Aerzte - Perfekt tab

e:--------------------------------------------------------------------------------|
b:---------------------------------------------------------------------5--7-5-----|
g:------------------4-------------------------------------------4--4h6--6---------|
d:-----2---2-4/6-4----6-4-2---2-2-2--------------2---2-4/6--4h6-------------------|
a:-2-4---4------------------4-------2h4-2----2-4---4------------------------------|
E:--------------------------------------------------------------------------------|


e:-----7---9-7--------------------------------------------------------------0------------|
b:-7/9---9-----9-7----7-----12(x8)-10(x8)-9(x8)-5(x8)--12--10--9--5---------2------------|
g:-----------------9-----9--------------------------------------------------2------------|
d:--------------------------------------------------------------------------2------------|
a:--------------------------------------------------------------------------0------------|
E:---------------------------------------------------------------------------------------|

e:----------------------------------------------------------------------------------|
b:-12p0-0-0-0-10p0-0-0-0-9p0-0-0-0-7p0-0-0-0-5p0-0-0-0-4p0-0-0-0-2p0-0-0-0-0-0-0-0--|
g:----------------------------------------------------------------------------------|
d:----------------------------------------------------------------------------------|
a:----------------------------------------------------------------------------------|
E:----------------------------------------------------------------------------------|

e:-/7-7-7--7-9-10-11--|
b:-/7-7-7--7-8-9--10--|
g:-/8-8-8--8-9-10-11--|
d:--------------------|
a:--------------------|
E:--------------------|

Please rate!
/-  Slide
h-  hammering on
x8- eight times
Tap to rate this tab
 
# A B C D E F G H I J K L M N O P Q R S T U V W X Y Z