Song name
# A B C D E F G H I J K L M N O P Q R S T U V W X Y Z

Die Aerzte - Junge tab

Junge  -  Ärzte
tab: igmeiner@gmx.net
Tuning: Standard, half step down
    G                            A
E||--------------------3--------|----------------------------|
B||--------3----------------3---|------2------2h3-2----------|
G||------------0----------------|---------2------------2-----|
D||------0-----------0----------|----2-----------------------|
A||-----------------------------|-0--------------------------|
E||--3------------3-------------|----------------------------|
   Bm
E||------------------------------|------------------------------|
B||-------3-------------2--------|-------3--------------2-------|
G||----------4---------------4---|-----------4--------------4---|
D||----4-------------4-----------|----4--------------4----------|
A||-2--------------2-------------|-2--------------2-------------|
E||------------------------------|------------------------------| 2x

Vers:
G     A                      Bm   
Junge,  warum hast Du nichts gelernt?
             G          A                 Bm      F#m
Guck Dir den Dieter an: der hat sogar ein Auto!
      G                                     A
Warum gehst Du nicht zu Onkel Werner in die Werkstatt?
                Bm
Der gibt Dir ne Festanstellung, wenn Du ihn darum bittest

Chorus: 
   
G    A                 G  
Junge..und wie du wieder aussiehst
              Em 12.Bund
Löcher in der Hose
                   Bm 7.Bund
und ständig dieser Lärm
                D 10.Bund
(was sollen die Nachbarn sagen?)
                    G
und dann noch deine Haare
                  Em 
da fehlen mir die Worte
                  Bm
musst du die denn färben?
                D
(was sollen die Nachbarn sagen?)
                   G
Nie kommst du nach Hause
                      Em 0.Bund
wir wissen nicht mehr weiter



Vers:
G      A                               Bm
Junge, brich deiner Mutter nicht das Herz
             G
es ist noch nicht zu spät
  A                   Bm       
dich an der Uni einzuschreiben
                   G                   A
du hast dich doch früher so für Tiere interessiert
                     Bm
wäre das nichts für dich eine eigene Praxis
G
Junge..

Chorus:
  A                 G
..und wie du wieder aussiehst
              Em
Löcher in der Nase
                   Bm
und ständig dieser Lärm
                D
(was sollen die Nachbarn sagen?)
             G                        Em
elektrische Gitarren und immer diese Texte
                     Bm
das will doch keiner hören
                 D
(was sollen die Nachbarn sagen?)
                   G
Nie kommst du nach Hause
                   Em
so viel schlechter Umgang
                 Bm
wir werden dich enterben
              D
(was soll das Finanzamt sagen?)
                   G
wo soll das alles enden
                     Em
wir machen uns doch Sorgen?


G            Em           Bm
und du warst so ein süßes Kind             
             D            G   
und du warst so ein süßes Kind
             Em           Bm
und du warst so ein süßes Kind
             D
du warst so süss

Chorus:
                G
Und immer deine Freunde
                    Em
ihr nehmt doch alle Drogen
                   Bm
und ständig dieser Lärm
                 D
(was sollen die Nachbarn sagen?)
               G
denk an deine Zukunft
               Em
denk an deine Eltern
                    Bm
willst du, dass wir sterben?


Guitar 3: (Overdrive)
----------------------------|-----------------------------|
-------------10h12--10------|-----------------------------|
-----------------------11---|-----------------------------|
-------------------------12-|-(12)---------/14------16-17-|
----------------------------|-----------------------------|
----------------------------|-----------------------------|


---------------------------|------------------------------|
------------------12-14-15-|-10/12---10h12p10------(10)\--|
-----------------x---------|------------------------------|
-16h17p16------------------|------------------------------|
---------------------------|------------------------------|
---------------------------|------------------------------|
Tap to rate this tab
# A B C D E F G H I J K L M N O P Q R S T U V W X Y Z