Song name
# A B C D E F G H I J K L M N O P Q R S T U V W X Y Z

Die Aerzte - Geschwisterliebe tab

Geschwisterliebe
================
(M/T: Urlaub)

tabbed by assmax9392 

Intro:
(In the first two figures of the intro is no bass)
   a         G            F
1:-----0------------3-----------1-|
2:-------1--------0---0-------1---|
3:---------2----0-------0---2-----|
4:-2------------------------------|
5:-0------------------------------|
6:-----------3------------1-------|

1:--------------------------------|
2:--------------------------------|
3:--------------------------------|
4:--------------------------------|

 
  a         G            F
1:-----0------------3-----------1-|-----------| 
2:-------1--------0---0-------1---|-----------|
3:---------2----0-------0---2-----|-----------|
4:-2------------------------------|-----------|
5:-0------------------------------|--scratch--| 
6:-----------3------------1-------|-----------|

1:--------------------------------|-----------|
2:--------------------------------|-----------|
3:--------------------------------|-----------|
4:--------------------------------|-----------|


  a         G            F
1:-----0------------3-----------1-|---------------------|
2:-------1--------0---0-------1---|-1-1-1--1^3-1^0------| 
3:---------2----0-------0---2-----|----------------2^0--| 
4:-2------------------------------|---------------------|
5:-0------------------------------|---------------------|
6:-----------3------------1-------|---------------------|

1:--------------------------------|---------------------|
2:--------------------------------|---------------------|
3:-0-------0----------------------|---------------------|
4:-----------3----------3-1-------|-1-1------3-------0--|


   a         G            F
1:-----0------------3-----------1-|-5-------8-----|
2:-------1--------0---0-------1---|----6-------10-|
3:---------2----0-------0---2-----|---------------|
4:-2------------------------------|---------------|
5:-0------------------------------|---------------|
6:-----------3------------1-------|---------------|

1:--------------------------------|---------------|
2:--------------------------------|---------------|
3:-0-------0----------------------|---------------|
4:-----------3----------3-1-------|-1-1---1-1---3-|

1.Verse:

  Wir haben zusammen im Sandkasten gesessen.
1:--------------------------------|-------------|
2:--------------------------------|-------------|
3:-0-------0----------------------|-------------|
4:-----------3----------3-1-------|-1--------3--|

Beim Doktorspielen wollt' ich nur Dein Fieber messen.
1:--------------------------------|-------------|
2:--------------------------------|-------------|
3:-0-------0----------------------|-------------|
4:-----------3----------3-1-------|-1-1------3--|

Jetzt bist Du 14 und Du bist soweit.
1:--------------------------------|-------------|
2:--------------------------------|-------------|
3:-0-------0----------------------|-------------|
4:-----------3----------3-1-------|-1-1------3--|

Wir warten keine Ewigkeit.
1:----------------------------------------------|
2:----------------------------------------------|
3:-0-------0------------------------------------|
4:-----------3---------3-1-1-3-1-1-3-1-1--1-3-0-|


Refrain:

Sind unsere Eltern auch dagegen.
1:----------------------------------------------|
2:----------------------------------------------|
3:-0-------0------------------------------------|
4:-----------3--------3-1-1-3-1-1-3-1-1-1-3-1-1-|

Ich würd' Dich gerne mal   flachlegen!
1:----------------------------------------------|
2:----------------------------------------------|
3:-0-------0------------3-----------------------|
4:-----------3--------3-------------------------|

Interlude:

1:--------------------------------|---------------------|
2:--------------------------------|---------------------|
3:-0-------0----------------------|---------------------|
4:-----------3----------3-1-------|-1-1------3-------0--|

1:----------------------------------------------|
2:----------------------------------------------|
3:-0-------0------------------------------------|
4:-----------3---------3-1-1-3-1-1-3-1-1--1-3-0-|

2.Verse:
(genau so wie Strophe 1)

Ich hoffe, dass Du keine Kinder kriegst.
Weil Du doch schliesslich meine Schwester bist.
Die Eltern die sind weggefahren.
Auf die Gelegenheit warte ich seit 14 Jahren.


Refrain:

Noch sitzen wir hier und  spielen Schach
Aber gleich leg ich Dich flach!


Solo:

1:--------------------------------|-------------|
2:--------------------------------|-------------|
3:-0-------0----------------------|-------------|
4:-----------3----------3-1-------|-1-1------3--|

1:--------------------------------|-------------|
2:--------------------------------|-------------|
3:-0-------0----------------------|-------------|
4:-----------3----------3-1-------|-1-1------3--|


3.Verse:
(Liek verse 1)

Der grosse Augenblick ist da...
Ich liege auf Dir, Du schreist JAAA!!
Du bist so eng - das macht mich geil.
Und morgen nehme ich Dein Hinterteil


Refrain:

Noch Stunden später   bist Du sehr    erregt.
Ich hab Dich schliesslich grade   flachgelegt.


Outro:
(2x)
1:----------------------------------------------|
2:----------------------------------------------|
3:-0-------0------------------------------------|
4:-----------3--------3-1-1-3-1-1-3-1-1-1-3-1-1-|

(1x)
1:----------------------------------------------|
2:----------------------------------------------|
3:-0-------0------------3-----------------------|
4:-----------3--------3-------------------------|

	
Tap to rate this tab
# A B C D E F G H I J K L M N O P Q R S T U V W X Y Z