Song name
# A B C D E F G H I J K L M N O P Q R S T U V W X Y Z

Die Aerzte - Schlaflied tab

  C          C/H        Am         Em         Am         Em         G
e|----0-----|----0-----|----0-----|----0-----|----0-----|----0-----|----1-----|----1-----|
B|---1-1----|---1-1----|---1-1----|---0-0----|---1-1----|---0-0----|---0-0----|---0-0----|
G|--0---0-0-|--0---0-0-|--2---2-2-|--0---0-0-|--2---2-2-|--0---0-0-|--0---0-0-|--0---0-0-|
D|----------|----------|----------|----------|----------|----------|----------|----------|
A|-3-----3--|-2-----2--|-0-----0--|----------|-0-----0--|----------|----------|----------|
E|----------|----------|----------|-0-----0--|----------|-0-----0--|-3-----3--|-3-----3--|

  Schlaf mein Kindchen, schlafe    ein die    nacht, die schaut zum Fenster    rein

  C          C/H        Am         Em         Am         Em         G
e|----0-----|----0-----|----0-----|----0-----|----0-----|----0-----|----1-----|----1-----|
B|---1-1----|---1-1----|---1-1----|---0-0----|---1-1----|---0-0----|---0-0----|---0-0----|
G|--0---0-0-|--0---0-0-|--2---2-2-|--0---0-0-|--2---2-2-|--0---0-0-|--0---0-0-|--0---0-0-|
D|----------|----------|----------|----------|----------|----------|----------|----------|
A|-3-----3--|-2-----2--|-0-----0--|----------|-0-----0--|----------|----------|----------|
E|----------|----------|----------|-0-----0--|----------|-0-----0--|-3-----3--|-3-----3--|

  der runde Mond, der   hat dich   gerne      und es     leuchten   Dir die    Sterne

  C          C/H        Am         Em         Am         Em         G
e|----0-----|----0-----|----0-----|----0-----|----0-----|----0-----|----1-----|----1-----|
B|---1-1----|---1-1----|---1-1----|---0-0----|---1-1----|---0-0----|---0-0----|---0-0----|
G|--0---0-0-|--0---0-0-|--2---2-2-|--0---0-0-|--2---2-2-|--0---0-0-|--0---0-0-|--0---0-0-|
D|----------|----------|----------|----------|----------|----------|----------|----------|
A|-3-----3--|-2-----2--|-0-----0--|----------|-0-----0--|----------|----------|----------|
E|----------|----------|----------|-0-----0--|----------|-0-----0--|-3-----3--|-3-----3--|

  schlaf mein kleines, träume      süß bald bist         Du   im  Para----------dies

  C          C/H        Am         Em         Am         Em         G
e|----0-----|----0-----|----0-----|----0-----|----0-----|----0-----|----1-----|----1-----|
B|---1-1----|---1-1----|---1-1----|---0-0----|---1-1----|---0-0----|---0-0----|---0-0----|
G|--0---0-0-|--0---0-0-|--2---2-2-|--0---0-0-|--2---2-2-|--0---0-0-|--0---0-0-|--0---0-0-|
D|----------|----------|----------|----------|----------|----------|----------|----------|
A|-3-----3--|-2-----2--|-0-----0--|----------|-0-----0--|----------|----------|----------|
E|----------|----------|----------|-0-----0--|----------|-0-----0--|-3-----3--|-3-----3--|

  Denn gleich öffnet    sich die   Tür        und ein    Monster   kommt zu    Dir

  C          C/H        Am         Em         Am         Em         G
e|----0-----|----0-----|----0-----|----0-----|----0-----|----0-----|----1-----|----1-----|
B|---1-1----|---1-1----|---1-1----|---0-0----|---1-1----|---0-0----|---0-0----|---0-0----|
G|--0---0-0-|--0---0-0-|--2---2-2-|--0---0-0-|--2---2-2-|--0---0-0-|--0---0-0-|--0---0-0-|
D|----------|----------|----------|----------|----------|----------|----------|----------|
A|-3-----3--|-2-----2--|-0-----0--|----------|-0-----0--|----------|----------|----------|
E|----------|----------|----------|-0-----0--|----------|-0-----0--|-3-----3--|-3-----3--|

  mit seinen elf Augen schaut es Dich an und schleicht sich an dein Bettchen   ran

  C          C/H        Am         Em         Am         Em         G
e|----0-----|----0-----|----0-----|----0-----|----0-----|----0-----|----1-----|----1-----|
B|---1-1----|---1-1----|---1-1----|---0-0----|---1-1----|---0-0----|---0-0----|---0-0----|
G|--0---0-0-|--0---0-0-|--2---2-2-|--0---0-0-|--2---2-2-|--0---0-0-|--0---0-0-|--0---0-0-|
D|----------|----------|----------|----------|----------|----------|----------|----------|
A|-3-----3--|-2-----2--|-0-----0--|----------|-0-----0--|----------|----------|----------|
E|----------|----------|----------|-0-----0--|----------|-0-----0--|-3-----3--|-3-----3--|

  Du liegst still da, bewegst Dich nicht das Monster zerkratzt Dir dein      Gesicht

  C          C/H        Am         Em         Am         Em         G
e|----0-----|----0-----|----0-----|----0-----|----0-----|----0-----|----1-----|----1-----|
B|---1-1----|---1-1----|---1-1----|---0-0----|---1-1----|---0-0----|---0-0----|---0-0----|
G|--0---0-0-|--0---0-0-|--2---2-2-|--0---0-0-|--2---2-2-|--0---0-0-|--0---0-0-|--0---0-0-|
D|----------|----------|----------|----------|----------|----------|----------|----------|
A|-3-----3--|-2-----2--|-0-----0--|----------|-0-----0--|----------|----------|----------|
E|----------|----------|----------|-0-----0--|----------|-0-----0--|-3-----3--|-3-----3--|

  Seine Finger sind lang und dünn wehr Dich    nicht,     es hat      keinen    Sinn

  C          C/H        Am         Em         Am         Em         G
e|----0-----|----0-----|----0-----|----0-----|----0-----|----0-----|----1-----|----1-----|
B|---1-1----|---1-1----|---1-1----|---0-0----|---1-1----|---0-0----|---0-0----|---0-0----|
G|--0---0-0-|--0---0-0-|--2---2-2-|--0---0-0-|--2---2-2-|--0---0-0-|--0---0-0-|--0---0-0-|
D|----------|----------|----------|----------|----------|----------|----------|----------|
A|-3-----3--|-2-----2--|-0-----0--|----------|-0-----0--|----------|----------|----------|
E|----------|----------|----------|-0-----0--|----------|-0-----0--|-3-----3--|-3-----3--|

  und es    kichert    wie ver----rückt      als es      deinen     Hals     zudrückt!

  C          C/H        Am         Em         Am         Em         G
e|----0-----|----0-----|----0-----|----0-----|----0-----|----0-----|----1-----|----1-----|
B|---1-1----|---1-1----|---1-1----|---0-0----|---1-1----|---0-0----|---0-0----|---0-0----|
G|--0---0-0-|--0---0-0-|--2---2-2-|--0---0-0-|--2---2-2-|--0---0-0-|--0---0-0-|--0---0-0-|
D|----------|----------|----------|----------|----------|----------|----------|----------|
A|-3-----3--|-2-----2--|-0-----0--|----------|-0-----0--|----------|----------|----------|
E|----------|----------|----------|-0-----0--|----------|-0-----0--|-3-----3--|-3-----3--|

 Du schreist doch Du bist allein zu Haus    das Monster  sticht Dir die Augen   aus

  C          C/H        Am         Em         Am         Em         G
e|----0-----|----0-----|----0-----|----0-----|----0-----|----0-----|----1-----|----1-----|
B|---1-1----|---1-1----|---1-1----|---0-0----|---1-1----|---0-0----|---0-0----|---0-0----|
G|--0---0-0-|--0---0-0-|--2---2-2-|--0---0-0-|--2---2-2-|--0---0-0-|--0---0-0-|--0---0-0-|
D|----------|----------|----------|----------|----------|----------|----------|----------|
A|-3-----3--|-2-----2--|-0-----0--|----------|-0-----0--|----------|----------|----------|
E|----------|----------|----------|-0-----0--|----------|-0-----0--|-3-----3--|-3-----3--|

  Dann bist Du still und das ist   gut es    beist Dir in den hals und trinkt dein Blut

  C          C/H        Am         Em         Am         Em         G
e|----0-----|----0-----|----0-----|----0-----|----0-----|----0-----|----1-----|----1-----|
B|---1-1----|---1-1----|---1-1----|---0-0----|---1-1----|---0-0----|---0-0----|---0-0----|
G|--0---0-0-|--0---0-0-|--2---2-2-|--0---0-0-|--2---2-2-|--0---0-0-|--0---0-0-|--0---0-0-|
D|----------|----------|----------|----------|----------|----------|----------|----------|
A|-3-----3--|-2-----2--|-0-----0--|----------|-0-----0--|----------|----------|----------|
E|----------|----------|----------|-0-----0--|----------|-0-----0--|-3-----3--|-3-----3--|

  ohne Blut bist Du    bleich wie Kreide dann frisst es deine       Eingeweide

  C          C/H        Am         Em         Am         Em         G
e|----0-----|----0-----|----0-----|----0-----|----0-----|----0-----|----1-----|----1-----|
B|---1-1----|---1-1----|---1-1----|---0-0----|---1-1----|---0-0----|---0-0----|---0-0----|
G|--0---0-0-|--0---0-0-|--2---2-2-|--0---0-0-|--2---2-2-|--0---0-0-|--0---0-0-|--0---0-0-|
D|----------|----------|----------|----------|----------|----------|----------|----------|
A|-3-----3--|-2-----2--|-0-----0--|----------|-0-----0--|----------|----------|----------|
E|----------|----------|----------|-0-----0--|----------|-0-----0--|-3-----3--|-3-----3--|

  dein kleines Bettchen von Blut ganz rot    die Sonne geht auf und Du bist  tot

  C          C/H        Am         Em         Am         Em         G
e|----0-----|----0-----|----0-----|----0-----|----0-----|----0-----|----1-----|----1-----|
B|---1-1----|---1-1----|---1-1----|---0-0----|---1-1----|---0-0----|---0-0----|---0-0----|
G|--0---0-0-|--0---0-0-|--2---2-2-|--0---0-0-|--2---2-2-|--0---0-0-|--0---0-0-|--0---0-0-|
D|----------|----------|----------|----------|----------|----------|----------|----------|
A|-3-----3--|-2-----2--|-0-----0--|----------|-0-----0--|----------|----------|----------|
E|----------|----------|----------|-0-----0--|----------|-0-----0--|-3-----3--|-3-----3--|

  Schlaf mein Kindchen, schlaf jetzt ein am   Himmel     stehen die  Sternelein

  C          C/H        Am         Em         Am         Em         G
e|----0-----|----0-----|----0-----|----0-----|----0-----|----0-----|----1-----|----1-----|
B|---1-1----|---1-1----|---1-1----|---0-0----|---1-1----|---0-0----|---0-0----|---0-0----|
G|--0---0-0-|--0---0-0-|--2---2-2-|--0---0-0-|--2---2-2-|--0---0-0-|--0---0-0-|--0---0-0-|
D|----------|----------|----------|----------|----------|----------|----------|----------|
A|-3-----3--|-2-----2--|-0-----0--|----------|-0-----0--|----------|----------|----------|
E|----------|----------|----------|-0-----0--|----------|-0-----0--|-3-----3--|-3-----3--|

  schlaf mein Kindchen schlafe schnell dein Bettchen     ist ein    Karusell

  C          C/H        Am         Em         Am         Em         G
e|----0-----|----0-----|----0-----|----0-----|----0-----|----0-----|----1-----|----1-----|
B|---1-1----|---1-1----|---1-1----|---0-0----|---1-1----|---0-0----|---0-0----|---0-0----|
G|--0---0-0-|--0---0-0-|--2---2-2-|--0---0-0-|--2---2-2-|--0---0-0-|--0---0-0-|--0---0-0-|
D|----------|----------|----------|----------|----------|----------|----------|----------|
A|-3-----3--|-2-----2--|-0-----0--|----------|-0-----0--|----------|----------|----------|
E|----------|----------|----------|-0-----0--|----------|-0-----0--|-3-----3--|-3-----3--|

  schlaf mein kindchen, schlaf jetzt ein sonst kann das Monster     nicht hinein

  C          C/H        Am         Em         Am         Em         G
e|----0-----|----0-----|----0-----|----0-----|----0-----|----0-----|----1-----|----1-----|
B|---1-1----|---1-1----|---1-1----|---0-0----|---1-1----|---0-0----|---0-0----|---0-0----|
G|--0---0-0-|--0---0-0-|--2---2-2-|--0---0-0-|--2---2-2-|--0---0-0-|--0---0-0-|--0---0-0-|
D|----------|----------|----------|----------|----------|----------|----------|----------|
A|-3-----3--|-2-----2--|-0-----0--|----------|-0-----0--|----------|----------|----------|
E|----------|----------|----------|-0-----0--|----------|-0-----0--|-3-----3--|-3-----3--|

  Hmmm...

  C          C/H        Am         Em         Am         Em         G
e|----0-----|----0-----|----0-----|----0-----|----0-----|----0-----|----1-----|----1-----|
B|---1-1----|---1-1----|---1-1----|---0-0----|---1-1----|---0-0----|---0-0----|---0-0----|
G|--0---0-0-|--0---0-0-|--2---2-2-|--0---0-0-|--2---2-2-|--0---0-0-|--0---0-0-|--0---0-0-|
D|----------|----------|----------|----------|----------|----------|----------|----------|
A|-3-----3--|-2-----2--|-0-----0--|----------|-0-----0--|----------|----------|----------|
E|----------|----------|----------|-0-----0--|----------|-0-----0--|-3-----3--|-3-----3--|

  Hmmm...

------------------------------------------------

viel spaß beim spielen, von der sache her ist das stück relativ einfach, da sich die 
die ganze zeit wiederholt!!
Tap to rate this tab
# A B C D E F G H I J K L M N O P Q R S T U V W X Y Z