Guitaretab - guitar tabs
Song name
# A B C D E F G H I J K L M N O P Q R S T U V W X Y Z

Die Aerzte - Nie Wieder Krieg Nie Mehr Las Vegas tab

Band: Die Ärzte
Song: Nie wieder Krieg, nie mehr Las Vegas!

Tuning: Standart  (E A D G B e)

Intro


   Bm     F#     G#     E7
e-------------------------------|   4x
B-------------------------------|
G--4-4-4----------------9-9-9---|
D--4-4-4--4-4-4--6-6-6--9-9-9---|
A--2-2-2--4-4-4--6-6-6--7-7-7---|
E---------2-2-2--4-4-4----------|

    Verse 1 (all Palm Muted ; when u change the chords play them a bit open)

Bm                     F#
Ich bin heut morgen im Rinnstein aufgewacht

G#                          E7
Splitternackt, mit schwerem Schädel - was für eine Nacht!

Bm                           F#
Keinen Pfennig in der Tasche und kein Geld mehr auf der Bank.

G#                           E7
Hallo Leute, ich bin pleite, ich bin total blank

C#                       E7
Alles verspielt, ich hab alles verloren.

C#                               E7              F#
Aber jetzt ist Schluß damit, das hab' ich mir geschwor'n.


   Chorus

Bm                       F#
Nie wieder Hütchenspiel, nie wieder in die Spielothek

G#                        E7
Nie wieder Hütchenspiel - oh, das ganze Geld ist weg!

Bm                     F#
Nie mehr Las Vegas und nie mehr Quartett.

G#                      E7
Nie wieder Hütchenspiel oder russisches Roulette.


    Interlude   2x

    Bm  -  F#  -  G#  -  E7


    Verse 2


Bm                             F#
Es fing alles ganz harmlos mit Monopoly an

G#                              E7
Ich war immer der Reichste, weil ich immerzu gewann.

Bm                            F#
Später spielte ich dann Lotto, natürlich mit System

G#                       E7
Ich hatte oft 3 Richtige, das war ein schönes Leben.

C#                           E7
Oft saß ich am Roulettetisch, nächtelang

C#                             F#                 E7
Doch die verdammte Zockerei ist jetzt mein Untergang.
[ Tab from: http://www.guitaretab.com/d/die-aerzte/68091.html ]
Chorus


Bm                       F#
Nie wieder Hütchenspiel, nie wieder in die Spielothek

G#                        E7
Nie wieder Hütchenspiel - oh, das ganze Geld ist weg!

Bm                    F#
Alles duchgebracht, da ham wir den Salat.

G#                     E7
Nie wieder Hütchenspiel oder russisches Roulette.

     Bridge


C#             Bm
Oh, wie schade, oh wie schade:

G#                       F#
Nur noch trocken Brot und keine Schokolade

C#             Bm
Oh, wie schade, ewig schade:

G#                    E7  F#               C#
Nur noch Trockenbrot und keine Schokolade mehr

   E7   F#    G#    E7
Das Leben ist nicht fair!


(Intro)

Bm     F#     G#     E7
e-------------------------------|   2x
B-------------------------------|
G--4-4-4----------------9-9-9---|
D--4-4-4--4-4-4--6-6-6--9-9-9---|
A--2-2-2--4-4-4--6-6-6--7-7-7---|
E---------2-2-2--4-4-4----------|

Chorus


Bm                      F#
Nie wieder Hütchenspiel, Nie wieder in die Spielothek!

G#                      E7
Nie wieder Hütchenspiel, Oh, das ganze Geld ist weg!

Bm                  F#
Nie mehr Malefiz und nie mehr Fang den Hut!

G#                       E7
Nie wieder Hütchenspiel - dann wird alles wieder gut!


Outro   2x


Guitar 1


    Bm    F#    G#    E7
e-------------------------------|
B-------------------------------|
G---4-4---------------9-9-9~----|
D---4-4---4-4---6-6---9-9-9~----|
A---2-2---4-4---6-6---7-7-7~----|
E---------2-2---4-4-------------|


Guitar 2

e---------------------------------------------------------|
B---------------------------------------------------------|
G---------------------------------------------------------|
D---------4-2-1-------------------------------------------|
A--2-2--2---------------4-2-1---------6-4-2---------2-0---|
E----------------2-2--2--------4-4--4--------0-0--0-----4-|
Related for Nie Wieder Krieg Nie Mehr Las Vegas tab
Advertisement will be closed in 10 seconds