Song name
# A B C D E F G H I J K L M N O P Q R S T U V W X Y Z

Die Aerzte - Mitten In Die Fresse tab

Tabbed by: Guitar Grizzly

Ich denke, dass das die richtige Weise ist, "Mitten in die Fresse" zu spielen

Verse:
e|----------|
B|----------|
G|----------|
D|-10-9-7---|
A|-10-9-7---|
E|-8--7-5---|
Du hast mich so oft angespuckt geschlagen und getreten

e|----------|
B|----------|
G|----------|
D|-10-9-7---|
A|-10-9-7---|
E|-8--7-5---|
Das war nicht sehr nett von dir ich hatte nie darum gebeten

e|------------------|
B|------------------|
G|------------------|
D|-5-5-5-5-10-9-7---|
A|-5-5-5-5-10-9-7---|
E|-3-3-3-3-8--7-5---|
   x x x x

e|---------------------------------------------------------------------|
B|---------------------------------------------------------------------|
G|---------------------------------------------------------------------|
D|-7-7-7-7-7-7-7-7-3-3-3-3-3-3-3-3-10-10-10-10-10-10-10-10-5-5-5-5-5-5-|
A|-7-7-7-7-7-7-7-7-3-3-3-3-3-3-3-3-10-10-10-10-10-10-10-10-5-5-5-5-5-5-|
E|-5-5-5-5-5-5-5-5-1-1-1-1-1-1-1-1-8--8--8--8--8--8--8--8--3-3-3-3-3-3-|
     x x x x x x x x x x x x x x x x  x  x  x  x  x  x  x  x   x   x
Deine freunde haben applaudiert sie fanden es ganz toll

e|---------------------------------------------------------------------|
B|---------------------------------------------------------------------|
G|---------------------------------------------------------------------|
D|-7-7-7-7-7-7-7-7-3-3-3-3-3-3-3-3-10-10-10-10-10-10-10-10-5-5-5-5-5-5-|
A|-7-7-7-7-7-7-7-7-3-3-3-3-3-3-3-3-10-10-10-10-10-10-10-10-5-5-5-5-5-5-|
E|-5-5-5-5-5-5-5-5-1-1-1-1-1-1-1-1-8--8--8--8--8--8--8--8--3-3-3-3-3-3-|
     x x x x x x x x x x x x x x x x  x  x  x  x  x  x  x  x   x   x
Wenn du mich vermöbelt hast doch jetzt ist das Maß voll

Refrain:
e|----------|
B|----------|
G|----------|
D|-10-5-3-5-|
A|-10-5-3-5-|
E|-8--3-1-3-|
Gewalt erzeugt Gegengewalt hat man dir das nicht erklährt

e|----------|
B|----------|
G|----------|
D|-10-5-3-5-|
A|-10-5-3-5-|
E|-8--3-1-3-|
oder hast du da auch wie so oft einfach nicht genau zugehört

e|---------------------|
B|---------------------|
G|---------------------|
D|-3-3-3-3-5-5-5-5-5-5-|
A|-3-3-3-3-5-5-5-5-5-5-|
E|-1-1-1-1-3-3-3-3-3-3-|
   x x     x   x   x
Jetzt stehst du vor mir und wir sind ganz allein  

e|---------------------|
B|---------------------|
G|---------------------|
D|-3-3-3-3-5-5-5-5-5-5-|
A|-3-3-3-3-5-5-5-5-5-5-|
E|-1-1-1-1-3-3-3-3-3-3-|
   x x     x   x   x
keiner kann dir helfen keiner steht dir bei

e|---------------------|
B|---------------------|
G|---------------------|
D|-3-3-3-3-5-5-5-5-5-5-|
A|-3-3-3-3-5-5-5-5-5-5-|
E|-1-1-1-1-3-3-3-3-3-3-|
   x x     x   x   x
ich schlag nur noch auf dich ein

e|-----------------|
B|-----------------|
G|-----------------|
D|-5-5-5-5-5-5-3-3-|
A|-5-5-5-5-5-5-3-3-|
E|-3-3-3-3-3-3-3-3-|
   x x x * * *

Chorus:
Immer mitten in die Fresse rein
e|-----------------------------------------|
B|-----------------------------------------|
G|-3-3-3-3-3-3-3-------7-7-7-7-7-7-7-------|
D|-3-3-3-3-3-3-3-3-3-3-7-7-7-7-7-7-7-3-3-3-|
A|-1-1-1-1-1-1-1-3-3-3-5-5-5-5-5-5-5-3-3-3-|
E|---------------1-1-1---------------1-1-1-|

Immer mitten in die Fresse rein
e|-----------------------------------------|
B|-----------------------------------------|
G|-3-3-3-3-3-3-3-------7-7-7-7-7-7-7-------|
D|-3-3-3-3-3-3-3-3-3-3-7-7-7-7-7-7-7-3-3-3-|
A|-1-1-1-1-1-1-1-3-3-3-5-5-5-5-5-5-5-3-3-3-|
E|---------------1-1-1---------------1-1-1-|


Verse:
e|----------|
B|----------|
G|----------|
D|-10-9-7---|
A|-10-9-7---|
E|-8--7-5---|
Ich bin nicht stark und ich bin kein Held doch was zu viel ist ist zu viel

e|----------|
B|----------|
G|----------|
D|-10-9-7---|
A|-10-9-7---|
E|-8--7-5---|
für deine Agressionen war ich immer das Ventil

e|------------------|
B|------------------|
G|------------------|
D|-5-5-5-5-10-9-7---|
A|-5-5-5-5-10-9-7---|
E|-3-3-3-3-8--7-5---|
   x x x x

e|---------------------------------------------------------------------|
B|---------------------------------------------------------------------|
G|---------------------------------------------------------------------|
D|-7-7-7-7-7-7-7-7-3-3-3-3-3-3-3-3-10-10-10-10-10-10-10-10-5-5-5-5-5-5-|
A|-7-7-7-7-7-7-7-7-3-3-3-3-3-3-3-3-10-10-10-10-10-10-10-10-5-5-5-5-5-5-|
E|-5-5-5-5-5-5-5-5-1-1-1-1-1-1-1-1-8--8--8--8--8--8--8--8--3-3-3-3-3-3-|
     x x x x x x x x x x x x x x x x  x  x  x  x  x  x  x  x   x   x
deine Kumpels waren immer dabei doch jetzt wendet sich das Blatt

e|---------------------------------------------------------------------|
B|---------------------------------------------------------------------|
G|---------------------------------------------------------------------|
D|-7-7-7-7-7-7-7-7-3-3-3-3-3-3-3-3-10-10-10-10-10-10-10-10-5-5-5-5-5-5-|
A|-7-7-7-7-7-7-7-7-3-3-3-3-3-3-3-3-10-10-10-10-10-10-10-10-5-5-5-5-5-5-|
E|-5-5-5-5-5-5-5-5-1-1-1-1-1-1-1-1-8--8--8--8--8--8--8--8--3-3-3-3-3-3-|
     x x x x x x x x x x x x x x x x  x  x  x  x  x  x  x  x   x   x
Auch wenn ich morgen besser umzieh irgendwo in eine andere Stadt

Refrain:
e|----------|
B|----------|
G|----------|
D|-10-5-3-5-|
A|-10-5-3-5-|
E|-8--3-1-3-|
Gewalt erzeugt Gegengewalt hat man dir das nicht erzählt

e|----------|
B|----------|
G|----------|
D|-10-5-3-5-|
A|-10-5-3-5-|
E|-8--3-1-3-|
oder hast du da auch wie so oft im Unterricht gefehlt

e|---------------------|
B|---------------------|
G|---------------------|
D|-3-3-3-3-5-5-5-5-5-5-|
A|-3-3-3-3-5-5-5-5-5-5-|
E|-1-1-1-1-3-3-3-3-3-3-|
   x x     x   x   x
Jetzt stehst du vor mir und wir sind ganz allein  

e|---------------------|
B|---------------------|
G|---------------------|
D|-3-3-3-3-5-5-5-5-5-5-|
A|-3-3-3-3-5-5-5-5-5-5-|
E|-1-1-1-1-3-3-3-3-3-3-|
   x x     x   x   x
und ich schlage weiter auf dich ein

e|---------------------|
B|---------------------|
G|---------------------|
D|-3-3-3-3-5-5-5-5-5-5-|
A|-3-3-3-3-5-5-5-5-5-5-|
E|-1-1-1-1-3-3-3-3-3-3-|
   x x     x   x   x
das tut gut das musste einfach mal sein

e|-----------------|
B|-----------------|
G|-----------------|
D|-5-5-5-5-5-5-3-3-|
A|-5-5-5-5-5-5-3-3-|
E|-3-3-3-3-3-3-3-3-|
   x x x * * *

Chorus:
Immer mitten in die Fresse rein
e|-----------------------------------------|
B|-----------------------------------------|
G|-3-3-3-3-3-3-3-------7-7-7-7-7-7-7-------|
D|-3-3-3-3-3-3-3-3-3-3-7-7-7-7-7-7-7-3-3-3-|
A|-1-1-1-1-1-1-1-3-3-3-5-5-5-5-5-5-5-3-3-3-|
E|---------------1-1-1---------------1-1-1-|

Immer mitten in die Fresse rein
e|-----------------------------------------|
B|-----------------------------------------|
G|-3-3-3-3-3-3-3-------7-7-7-7-7-7-7-------|
D|-3-3-3-3-3-3-3-3-3-3-7-7-7-7-7-7-7-3-3-3-|
A|-1-1-1-1-1-1-1-3-3-3-5-5-5-5-5-5-5-3-3-3-|
E|---------------1-1-1---------------1-1-1-|


weiterführen bis zum Schluss

Viel Spaß beim spielen,
Guitar Grizzly



Legende:
x = abgedämpft
Tap to rate this tab
 
# A B C D E F G H I J K L M N O P Q R S T U V W X Y Z