Song name
# A B C D E F G H I J K L M N O P Q R S T U V W X Y Z

Die Aerzte - 1-2 Lovesong tab

Highlighted       Show chord diagrams
Em - Em7 - Em6 - Em / Cmaj7 - 
A) - D4

0    0     0     0     3     2           3    - e
0    3     2     0     3     3           3    - h
0    0     0     0     0     2           2    - g
2    2     2     2     2     0           0    - d
2    2     2     2(*)  3     0           0    - A
0    0     0     0     x     x           x    - E


..(Em)

A:--0-2-|-3-----|
E:------|-------|


e  e7         e6      e     Cmaj7
   Ich weiss, Du wirst mich vermissen
D          D4             e
 Auch wenn Du jetzt gehen mußt
e7    e6           e            Cmaj7
Keine Geigen mehr, wenn wir uns küssen
D                    D4      G
 Ich hab' es einfach nicht gewußt


G - D - Cmaj7 - D

Ich hoff, meine Worte machen es nicht noch schlimmer
Vergiß nur einmal Deine Stolz
                              C - Cmaj7(Bass h) - 
A) - Cmaj7 (B h)
Ich weiß, Du liebst mich noch immer...

==CHORUS==

  e          Em7    Cmaj7                  Cmaj7 D
e:----------------------3--------------------------3-|
h:----------------------3--------------------------2-|
g:----------------------0--------------------------3-|
d:-----------2--4-5---2----------------------------0-|
A:---------2--------3---------------------3-5-5----x-|
E:-0-----3-----------------------------------------x-|

   Soll es das gewesen sein? (wie im Lovesong)
Fällt uns denn keine Lösung ein (wie im Lovesong)
Die Mög-lich-keit ist viel zu klein (für'n Lovesong)
Doch ich liebe nur Dich allein

==2ND==

Vieles ist zur Gewohnheit verkommen
Doch das ist immer die Gefahr
Routine hat ihren Platz eingenommen
Bis es nicht mehr auszuhalten war

Ich hoff, meine Worte machen es nicht noch schlimmer
Vergiß nur einmal Deine Stolz
Ich weiß, Du liebst mich noch immer...

[=CHORUS=]

==BRIDGE==

e:-------------------------------------------|-----------------------|
h:-------------------------------------------|-----------------------|
g:-------------------------------------------|-----------------------|
d:-------------------------------------------|-----------------------|
A:-------~7---------~7---------~7---------~7-|--------~7---------~7--|
E:-0-0-0------2-2-2------3-3-3------5-5-5----|--0-0-0------2-2-2-----|

Love, love, love, <3, <3, <3....


e:---------------------|-3--------|-5-------|
h:---------------------|-3--------|-5-------|
g:---------------------|-5--------|-7-------|
d:---------------------|-5--------|-7-------|
A:-------~7---------~7-|-3--------|-5-------|
E:-3-3-3------5-5-5----|-3-.....--|-5-------|....

Love, love, love, love ...

==3RD==

Ich weiß, Du wirst mich vermissen
Ich vermisse Dich schon jetzt
Ich vermisse auch die Geigen, vermiss Dich zu küssen
Nichts auf dieser Welt, was Dich ersetzt

Ich hoff, meine Worte machen es nicht noch schlimmer
Vergiß nur einmal Deine Stolz
Ich weiß, Du liebst mich noch immer...

[=CHORUS=]
                     Cmaj7
..doch ich liebe nur Dich allein
Tap to rate this tab
 
# A B C D E F G H I J K L M N O P Q R S T U V W X Y Z