Song name
# A B C D E F G H I J K L M N O P Q R S T U V W X Y Z

Die Aerzte - Jag Aelskar Sverige tab

-----------------------------------------------------------------------------
			     Jag Älskar Sverige! - DIE AERZTE
-----------------------------------------------------------------------------
Tabbed by: Astaldo	
Email: Anonymous_axx@web.de

Tuning: standart, low to high (e B G D A E)

---
It's my first tab, so be nice ;) Leave a comment! Listen to the song for correct timing!
The End is not that perfect..but it's ok i think ;)
---
play the 888 777 555 etc with fast picking, that's the way I do..

e|--------------------------------------------------------------------------|
B|--0-5-7-8-7-8/10-8--------------------------------------------------------|
G|-------------------5-----4h5p4p2h4---4-5/7---5-5h6p5p4-44-----------------|
D|--------------------------------------------------------------------------|
A|--------------------------------------------------------------------------|
E|--------------------------------------------------------------------------|

e|--------------------------------------------------------------------------|
B|--------------------------------------------------------------------------|
G|--------------------------------------------------------------------------|
D|--------------------------------------------------------------------------|
A|---------------------7--777-9-10--9h10p9----------------------------------|
E|--0-5-7-8--888--7-5-0--------------------8p7-777-555-333-222-0------------|


| /  slide up
| \  slide down
| h  hammer-on
| p  pull-off
| ~  vibrato
| +  harmonic
| x  Mute note
=============================================================================
Tap to rate this tab
 
# A B C D E F G H I J K L M N O P Q R S T U V W X Y Z