Song name
# A B C D E F G H I J K L M N O P Q R S T U V W X Y Z

Die Aerzte - Ich Weiss Nicht tab

Help us improve GuitareTab! Take a short survey!
Highlighted       Show chord diagrams
Titel: Ich wei nicht (ob es Liebe ist)
Band: Die rzte

Intro:
   a                d                G                C       e  
E :--0-------------|3-1-0-----------|----------------|1-0-0---0-----0-|
B :----3-1---------|------3-----3---|----0---1---3---|------3-----3---|
G :--------------2-|--------------2-|------0---0---0-|----------------|
D :----------------|0---------------|----------------|----------------|
A :0---------------|----------------|--------0---2---|3-------2-------|
E :----------------|----------------|3---3-----------|----------------|

   a                d                e    
E :0-0-------------|3-1-0-----------|----0-----------|
B :----3-1---------|------3-----3---|----0-----------|
G :--------------2-|--------------2-|----1-----------|
D :----------------|0---------------|----2-----------|
A :0---------------|----------------|----2-----------|
E :----------------|----------------|0---0-----------|


         C                        a
Vor zwei Wochen hab' ich Dich zum ersten Mal gesehen.
   C                      a
Du warst so betrunken, Du konntest kaum noch stehen.
    d                          d7 
Aus Mitleid hab' ich Dich nach Haus gebracht.
           f              G
Du sagtest zrtlich:"Mein Schatz, gute Nacht."

     C                                   a
Mein Schatz, hast Du gesagt - vielleicht war es nur ein Scherz.
C                a  
Amors Pfeil durchbohrte mein Herz.
      d                       d7 
Jetzt wei ich nicht, was ich denken soll.
f                           G
Ist es wirklich Liebe, oder find' ich Dich nur toll?


R:  a                  d
Ich wei nicht, ob das Liebe ist,
         G              C     e  
wenn man alle Frauen an einer mit.
         a                    d
Wenn man etwas hrt, und es sofort vergit -
e                      E7              a          (Intermezzo.. Schema)
Ich wei nicht, ob das Liebe ist.. ouh wouh...    (wie Intro          )


Am nchsten Tag habe ich Dich besucht.
Als das Bier alle war, hast Du laut geflucht.
Du lagst auf dem Bett und warst ziemlich breit,
aber immerhin waren wir allein zu zweit.

Ich wollte mit Dir reden ber Literatur 
und ber Liebe, aber Du lachtest nur.
Jetzt wei ich nicht, was ich denken soll.
Ist es wirklich Liebe, oder find' ich Dich nur toll?

R:
Ich wei nicht, ob es Liebe ist,
wenn man nicht mehr trinkt und it,
wenn man an eine denkt und eine andere kt.
Ich wei nicht ob das Liebe ist..

Ich wei nicht, ob es Liebe ist.
Ich wei nicht, ob es Liebe ist...
Wenn man beim pinkeln stndig neben's Becken pit...

(Strophenschema al fine)

Related for Ich Weiss Nicht tab