Song name
# A B C D E F G H I J K L M N O P Q R S T U V W X Y Z

Die Aerzte - Friedenspanzer tab

Friedenspanzer
tabbed by mairy

Intro

E :----------------|-------------------------------|
B :----------------|----6---------------6----------|
G :---------------5|5-7---7-5-5---5-5-7---7-5-5---5|
D :----------------|-------------------------------|
A :----------------|-------------------------------|
E :----------------|-------------------------------|

E :-------------------------------|-------------------------------|
B :----6-----------6-5---5-----5--|----6---------------6----------|
G :5-7---7-5-5---5-----7-----7---7|5-7---7-5-5---5-5-7---7-5-5---5|
D :-------------------------------|-------------------------------|
A :-------------------------------|-------------------------------|
E :-------------------------------|-------------------------------|
  :
  :
G :-------------------------------|-------------------------------|
D :-------------------------------|-------------------------------|
A :-------------------------------|----5-------5-------5-------5--|
E :-------------------------------|-------------------------------|

E :-------------------------------|-------|
B :----6-----------6-5---5-----5--|-------|
G :5-7---7-5-5---5-----7-----7---7|7------|(-> ins Feedback)
D :-------------------------------|-------|
A :-------------------------------|-------|
E :-------------------------------|-------|
  :                            Die Tagesschau...
  :
G :-------------------------------|------|
D :-------------------------------|------|
A :--------------------3-------3--|5---5-|
E :----1-------1------------------|------|

    D                                    F  Csus9
Die Tagesschau ist nicht mein Fall
D                                        F  Csus9
Nichts als Mord und Massensterben überall
    D                                    F  Csus9
Die Hunde des Krieges wieder losgelassen
    D                                        F  Csus9
Wenn Schwestern und Brüder sich wieder hassen
A            F
 Wenn Bomben fall'n,

e :-------------|    das Bb wird angerissen (harm.flagolett)
h :----- -------|
g :-------------|
d :-------------|
A :------1------|
E :--0--3--3--0-|

A         F
 Terror regiert
A                       F      A   C      G(*)     F G
 Und der Mensch im Allgemeinen zum Haß tendiert

(*) es ist eigentlich ein Dsus4,also ein G akkord ohne G->powerchord.

Zum Ref. folgender Lauf:

E||:-|-----------------------------------|
B||:-|-----9-----------------9-----------|
G||:8|8-10---10-8-8---8-8-10---10-8-8---8|
D||:-|-----------------------------------|
A||:-|-----------------------------------|
E||:-|-----------------------------------|

E :------------------------------------:||
B :-----9------------9-8----8------8---:||
G :8-10---10-8-8---8-----10-----10---10:||
D :------------------------------------:||
A :------------------------------------:||
E :------------------------------------:||


 F        C     C#          G#   Eb          b  F         (F und C: nur GT+Quint)
 Das, was mir dazu einfällt für die Rettung dieser Welt:
 F   C   C#     G# Eb   b F
 Friedenspanzer
 F          C     C#            G#  Eb               b F
 Er schießt Liebe in Dein Herz, bringt den Frieden ohne Schmerz
 F   C   C#     G#   b
 Friedenspanzer
 C#maj7
 Friedenspanzer

(->Akkord C#maj7 IV-Bund)

E :--4-
H :--6-
G :--5-
D :--6-
A :--4-
E :--x-

(-> Intro; Bass dazu: | d-d-d-d | d-d-c-c | f-f-f-f | f-f-c-c)

Er schießt Blumen statt Granaten
Er trifft jeden, auch die Harten
Anstelle Giftgas gibt es Rosenduft
Schwängert mit Weihrauch die verschmutzte Luft
Er läßt uns nie - mals mehr allein
Und auch Du und ich und alle werden seine Munition sein

 Das, was mir ....

Solo (Begleitung wie Zwischenteil nach Ref):


E :-----10--------10--------|10--------10--------10------|
B :10------9^10------9^10---|---9^10------9^10------9^10-|
G :-------------------------|----------------------------|
D :-------------------------|----------------------------|
A :-------------------------|----------------------------|
E :-------------------------|----------------------------|

E :--10--------10--------10-|------------------|
B :-----9^10------9^10------|10\8--------------|
G :-------------------------|------------------|
D :-------------------------|------------------|
A :-------------------------|------------------|
E :-------------------------|------------------|

E :--------------------------------|------------------------------------|
B :--------------------------------|------------------------------------|
G :--------------------------------|------------------10----10-12-10-12-|
D :--------------------------------|10----10-12-10-12----12-------------|
A :--------8----8-10-8-10-12-10-12-|---12-------------------------------|
E :10-8-10---10--------------------|------------------------------------|

E :---------8----8-10-8-10-13-10-13-|17--15--13----------------|
B :10----10---10--------------------|------------15--13--------|
G :---12----------------------------|--------------------------|
D :---------------------------------|--------------------15----|
A :---------------------------------|--------------------------|
E :---------------------------------|--------------------------|
                                      |---3---|   |---3--------|
E :------------------------------------------------------------|
B :------------------------------------------------------------|
G :------------------------------------------------------------|
D :12----------------------------------------------------------|
A :------------------------------------------------------------|
E :------------------------------------------------------------|

dsus2                     F C
Er näht das Ozonloch zu
Er pflanzt 'nen neuen Regenwald im Nu
Stopft Hungersnöte mit der Tofukanone
Erklärt die ganze Welt zu Anti-Walfang-Zone

Bass:           a  g     f#   g  a      g   f# g
Akkorde:        A7 C     D    G  A7     C   D  G
E :--------------------------|
B :--------------------------|
G :------0-------------------|
D :----2-------0-----0-----0-|
A :--0-------0-----0-----0---|
E :--------3-----2-----3-----|

Selbst die Neutroooo-nenbombe   hat versagt
             A7 C    D       G
Hier ist als Lö-sung wirklich nur noch


   A7               C               D9                F / G
E :---------------|---------------|--------------------------|
B :---------------|---------------|--------------------------|
G :--------0------|--------0------|-------0------------------|
D :-----2-------0-|-----2-------2-|----4--------5-----7----9-|
A :--0-------2----|--3-------4----|--5-------7------8---10---|
E :---------------|---------------|--------------------------|

 ..eins    ge -     fragt..


 Das, was mir ....

Macht Schluß mit jeder Diktatur
Ich frag mich, wie macht er das nur
Friedenspanzer
Er hilft uns bei jedem Reim,
Trägt Omas Einkaufstüten heim
Friedenspanzer
Tap to rate this tab
 
# A B C D E F G H I J K L M N O P Q R S T U V W X Y Z