Song name
# A B C D E F G H I J K L M N O P Q R S T U V W X Y Z

Die Aerzte - Mit Dem Schwert Nach Polen Warum Ren tab

Highlighted       Show chord diagrams
**Die Aerzte-Mit dem Schwert nach Polen, warum René?**




Riff1:
    Am                C            em     G
E|---0---0-0-0---0--|------------|--0--|--3--|
B|---1---1-1-1---1--|------------|--0--|--3--|
G|---2---2-2-2---2--|---------0--|--0--|--0--|
D|---2---2-2-2---2--|-------2----|--2--|--0--|
A|---0---0-0-0---0--|-0-2-3------|--2--|--2--|
E|---0---0-0-0---0--|------------|--0--|--3--|


Riff2:
Am                C            em     G
E|--------------|------------|--0--|--3--|
B|-----1--------|------------|--0--|--3--|
G|-------2-0-2--|---------0--|--0--|--0--|
D|---2----------|-------2----|--2--|--0--|
A|-0------------|-0-2-3------|--2--|--2--|
E|--------------|------------|--0--|--3--|

Am                         C                em  G  
   Du bist zwanzig und dir waechst kein Bart
Am                           C      em  G
   Deine Eltern sind bei der Post
Am                            C              em  G
   Wohnst in Marzahn, das ist ziemlich hart
Am                     C      em  G
   Hast ein Leben lang gelosed

Hm        A              G        em     Hm          
   Keine Freunde, keine Maedchen... (keinen Job)
          A            G
Du waerst gern bei der Polizei

Riff2

Schon mit dreizehn bist du asthmakrank
Einsames Roecheln auf einem Baum
Skinheads verpruegeln dich, denken du waerst ein Punk
Und Kanada ist dein Traum

Wieviel kannst du noch ertragen? (wieviel mehr?)
Selbst dein Moped haben sie dir geklaut!

Am    C     D     F G

Du besorgst dir 2 Gaspistolen
Ninjawurfstern vom Freund
Du machst Kampfsport wie Jean Claude van Damme
Keine Angst mehr vor dem Feind

Einen Ninjadress aus dem Kaufhaus (100 Mark)
Von nem Freund leihst du dir ein Schwert

Am            C           D       F G
     Mit dem Schwert nach Polen
Am            C        D     F   G Am    
     Mit dem Schwert - sag warum Rene?

Deine Familie sieht dich nochmal im vollen Ninjadress
Du gehst ins Bett und denkst: Morgen ist mein grosser Tag
Handschellen, Seil, Munition (Funkgeraet)
Schwert, Pistolen und Kompassuhr

Mit dem Schwert...
Deine Mutter ist ahnungslos

Tap to rate this tab
# A B C D E F G H I J K L M N O P Q R S T U V W X Y Z