Song name
# A B C D E F G H I J K L M N O P Q R S T U V W X Y Z

Die Aerzte - Der Graf Acoustic tab

-------------------------------------------------------------------------------
			 Der Graf - Unplugged - Die Ärzte
-------------------------------------------------------------------------------
Tabbed by: SirCotare
Email: sircotare@3025-game.de
Creative-Commons License: http://creativecommons.org/licenses/by-nc-sa/2.0/at/

Tuning: EADGBE

verse
----------------------------------------------------|
----------------------------------------------------|
---------------------7-7-7-7---4-4-4-4--------------|
-7-7-7-7---7-7-7-7---7-7-7-7---4-4-4-4--------------|
-7-7-7-7---7-7-7-7---5-5-5-5---2-2-2-2--------------|
-5-5-5-5-0-4-4-4-4----------------------------------|


variation
----------------------------------------------------|
----------------------------------------------------|
---------------------7-7-7-7---4-4-4-4--------------|
-4-4-4-4---4-4-4-4---7-7-7-7---4-4-4-4--------------|
-4-4-4-4---4-4-4-4---5-5-5-5---2-2-2-2--------------|
-2-2-2-2---1-1-1-1----------------------------------|


chorus
----------------------------------------------------|
----------------------------------------------------|
-----------2-2-2-2----------------------------------|
-4-4-4-4---2-2-2-2---2-2-2-2-2-2-2-2----------------|
-4-4-4-4---0-0-0-0---2-2-2-2-2-2-2-2----------------|
-2-2-2-2-------------0-0-0-0-0-0-0-0----------------|


post-chorus
----------------------------------------------------|
----------------------------------------------------|
-4-4-4-4-4-4-4---7-7-7-7-7-7---9-9-9-9-9-9-9--------|
-4-4-4-4-4-4-4---7-7-7-7-7-7---9-9-9-9-9-9-9--------|
-2-2-2-2-2-2-2---5-5-5-5-5-5---7-7-7-7-7-7-7--------|
----------------------------------------------------|

verse
	Der Graf ist nicht das, was er mal war,
	ja, der Graf wirkt heut seltsam und bizarr.

variation
	Ja, der Graf lebt von Blutkonserven, Ratten und Getier,

verse
	ja, der Graf ist kein Punkrocker, er ist Vampir.

	Der Graf erschreckt schon längs keine Kinder mehr.
	Ja, der Graf fühlt sich seltsam, alt und leer.

variation
	Ja, der Graf weiss nichts vom Ozonloch und Kernenergie,

verse
	ja, der Graf ist Vergangenheit, Blut und Nostalgie.

chorus
	"doch damals" - Ja, früher war - "doch damals" - er gefürchtet bei allen - das Böse in Person.
	ja, füher war - "doch damals" - er beliebt bei den Frauen,

post-chorus
	sie machten zum Lohn ihm die Hälse frei,
	doch das ist längs vorbei.

verse
	Der Graf ist jetzt einsam und allein.
	Ja, der Graf wollte nie ein Anachronismus sein.

variation
	Ja, der Graf sehnt sich so sehr nach dem Blut einer Jungfrau,

verse
	doch der Graf hat Angst, Angst vor HIV.

chorus
	"doch damals" - Ja, früher war - "doch damals" - er das mächtigste Wesen zwischen Zeit
Raum.
	Ja, früher war -"doch damals" - er ein schöner verbotener Traum

post-chorus
	von der Unsterblichkeit,
	sexy in seiner Erhabenheit.

verse
	Der Graf geht auf einem Berg und weint,
	ja, der Graf wartet, bis die Sonne auf ihn scheint
Tap to rate this tab
# A B C D E F G H I J K L M N O P Q R S T U V W X Y Z