Song name
# A B C D E F G H I J K L M N O P Q R S T U V W X Y Z

Die Aerzte - Der Grund tab

-------------------------------------------------------------------------------
			     die Ärzte - der Grund
-------------------------------------------------------------------------------


Tabbed by: Martin


Tuning: Standard


listen to the song for the right rhytm:


Verse:

    A    G    C

|---0----1----0---|
|---2----0----1---|
|---2----0----0---|
|---2----0----2---|
|---0----2----3---|
|--------3--------|


Chorus:

    F    A    G

|-----------------|
|-----------------|
|-----------------|
|---3----7----5---|
|---3----7----5---|
|---1----5----3---|


Solo:

x2

|-------------------------------|
|---5-----------------5-8-6-5---|     
|---5---5--4--------5-----------|   
|---7---------7---7-------------|   
|-------------------------------|    
|-------------------------------|




Tap to rate this tab
 
# A B C D E F G H I J K L M N O P Q R S T U V W X Y Z