Song name
# A B C D E F G H I J K L M N O P Q R S T U V W X Y Z

Die Aerzte - Liebe Und Schmerz tab

Liebe und Schmerz
=================
(M/T: Felsenheimer)

1.Strophe:
          C                  e
Die ganze Zeit, seit wir uns kennen,
        G
Hab ich nie daran gedacht:
         d                   D9
Was wird sein, wenn's einmal kracht.
         C                  e
Was wird sein, wenn wir uns trennen.
            G
Wird unsere Liebe dann zu Hass
     d                  D9
Oder war's dann einfach das?
     F(Distortion)
Denn Liebe geht auch mal vorbei,
C
All die schne Schwelgerei
       F                         G
Wenn's soweit ist, hat einer ein Problem


Refrain:
C             F            G
Liebe wird zu Schmerz ber Nacht
      C       F         d          G
weder Du noch ich haben je darber nachgedacht
    C           F
Wir lieen es geschehen,
            G                 a G F
Da war kein Grund, uns vorzu- sehen
     G             C(-->Interlude I)
Doch Liebe wird zu Schmerz

Lead part in refrains:

   C          F          G                    C          F      d G
1:----------|---------|---------------------|----------|-------|
2:----------|---------|---------------------|----------|-------|
3:-------0--|----2--0-|---------------------|-------0--|---2-0-|
4:---0^2----|---------|-----------------0---|---0^2----|-------|
5:-3--------|-3-------|----0^2------0^2-----|-3--------|-3-----|
6:----------|---------|--3-----3--3-------3-|----------|-------|

   C          F        G  a G F        G           C(-->Interlude)
1:----------|---------|         |----------|----------|
2:----------|---------|         |----------|----------|
3:-------0--|----2-0--|         |----------|----------|
4:---0^2----|---------|         |----------|----------|
5:-3--------|-3-------|         |---0------|----2--3--|
6:----------|---------|         |-1---1-3--|--3-------|


Interlude I:
   C        e         G                d       D9    C
1:--------|--------|-----------------|-------------|----|
2:--------|--------|-----------------|-------------|----|
3:------0-|-0------|-----0-----------|-------------|----|
4:----2---|----2--0|--------2--0---2-|-3-3--2--0---|----|
5:--3-----|--------|-----------------|------------2|--3-|
6:--------|--------|--3--------------|-------------|----|
            e              G            d       D9     C(-->Strophe)
1:--------|-------------|------------|--------------|-----|
2:--------|-------------|------------|--------------|-----|
3:------0-|-0-----------|------------|--------------|-----|
4:----2---|----2--0----2|--3-3--2--0-|--3-3--2--0---|-----|
5:--3-----|-------------|------------|-------------2|--3--|
6:--------|-------------|------------|--------------|-----|


2.Strophe:
            C                      e
Schmerz und Liebe liegen dich beieinander
         G
Wer hoch fliegt , der fllt auch tief,
           d              D9
Vielleicht war'n wir zu naiv
           C                        e
Es tut mir leid, ich wollte Dir das nie antun
     G
Doch nun ist es passiert,
        d                D9
Nun hab ich dein Herz halbiert
    F                     
Der Preis scheint viel zu hoch zu sein sein,
    C
den Schmerz hat man fr sich allein
     F                           G
Doch glaube mir, das war es trotzdem wert


Refrain (with the lead part)

C             F            G
Liebe wird zu Schmerz ber Nacht
      C       F         d          G
weder Du noch ich haben je darber nachgedacht
    C           F
Wir lieen es geschehen,
            G                 a G F
Da war kein Grund, uns vorzu- sehen
     G             C(-->Interlude II)
Doch Liebe wird zu Schmerz


Interlude II:
    C               e           G                d      D9      F(-->Bridge)
1:----------------|-----------|---------------|--------|------|-------|
2:--13(12x)/15/13-|-13/12(12x)|/3-3(8x)--8(8x)|--7(8x)-|10(8x)|-10----|
3:----------------|-----------|---------------|--------|------|-------|
4:--10(12x)/12/10-|-10/9-(12x)|/0-0(8x)--5(8x)|--3(8x)-|-7(8x)|--7....|
5:----------------|-----------|---------------|--------|------|-------|
6:----------------|-----------|---------------|--------|------|-------|


Bridge:
F                           C
Liebe geht auch mal vorbei, all die schne Schwelgerei.
F                           C
Liebe geht auch mal vorbei, all die schne Schwelgerei,
         F                           C
Denn die Liebe geht auch mal vorbei, all die schne Schwelgerei
       F                         G
Wenn's soweit ist, hat einer ein Problem


Refrain:

C             F            G
Liebe wird zu Schmerz ber Nacht
      C       F         d          G
weder Du noch ich haben je darber nachgedacht
    C           F
Wir lieen es geschehen,
            G                 a G F
Da war kein Grund, uns vorzu- sehen
F         G        
Liebe und Schmerz
C             F            G
Liebe wird zu Schmerz ber Nacht
      C       F
Weder Du noch ich
      G          a   G F
Haben je darber nachgedacht
G         C        (--Outro)
Liebe und Schmerz


Outro:
   C        e         G                d       D9    C
1:--------|--------|-----------------|-------------|----|
2:--------|--------|-----------------|-------------|----|
3:------0-|-0------|-----0-----------|-------------|----|
4:----2---|----2--0|--------2--0---2-|-3-3--2--0---|----|
5:--3-----|--------|-----------------|------------2|--3-|
6:--------|--------|--3--------------|-------------|----|
            e       d     
1:--------|-------------|
2:--------|-------------|
3:------0-|-0-----------|
4:----2---|----2--0-----|
5:--3-----|-------------|
6:--------|----------3--|
                                                   
          G                    d     D9-Fill  C
Und Schon wieder ein Lied ber Liebe und      Schmerz

D9-Fill:
1:-0------|
2:----3-0-|
Tap to rate this tab
# A B C D E F G H I J K L M N O P Q R S T U V W X Y Z