Song name
# A B C D E F G H I J K L M N O P Q R S T U V W X Y Z

Die Aerzte - Die Instrumente Des Orchesters tab

Mit Schlagzeug und Bass,
macht das Musikhören Spaß.

Doch wenn die Gitarre spielt ist alles zu spät (zu spät),
weil man dann den Text nicht mehr versteht.

Refrain Guitar 1: e|---------------------------------------------|
                  b|---------------------------------------------|
                  g|---7-7-7-7-7-7-7-7--5-5-5-5-5-5-5-5----------|
                  d|---7-7-7-7-7-7-7-7--5-5-5-5-5-5-5-5----------|
                  a|---5-5-5-5-5-5-5-5--3-3-3-3-3-3-3-3----------|
                  E|---------------------------------------------|

                  e|---------------------------------------------|
                  b|---------------------------------------------|
                  g|---9-9-9-9-9-9-9-9--7-7-7-7-7-7-7-7----------|
                  d|---9-9-9-9-9-9-9-9--7-7-7-7-7-7-7-7----------|
                  a|---7-7-7-7-7-7-7-7--5-5-5-5-5-5-5-5----------|
                  E|---------------------------------------------|


Guitar 2:
                  e|---------------------------------------------|
                  b|---7^--7^---5------5---7----5----------------|
                  g|---------------7----------------7---4--------|
                  d|---------------------------------------------|
                  a|---------------------------------------------|
                  E|---------------------------------------------|


                  e|---------------------------------------------|
                  b|---7^--7^---5------5---7----5----------------|
                  g|---------------7----------------7---2--------|
                  d|---------------------------------------------|
                  a|---------------------------------------------|
                  E|---------------------------------------------|


Wenn man Bass und Schlagzeug hat,
klingt die Musik schon ziemlich satt.

Doch der Lauteste ist,
natürlich nach wie vor der Gitarrist.

Refrain Guitar 1: e|---------------------------------------------|
                  b|---------------------------------------------|
                  g|---7-7-7-7-7-7-7-7--5-5-5-5-5-5-5-5----------|
                  d|---7-7-7-7-7-7-7-7--5-5-5-5-5-5-5-5----------|
                  a|---5-5-5-5-5-5-5-5--3-3-3-3-3-3-3-3----------|
                  E|---------------------------------------------|

                  e|---------------------------------------------|
                  b|---------------------------------------------|
                  g|---9-9-9-9-9-9-9-9--7-7-7-7-7-7-7-7----------|
                  d|---9-9-9-9-9-9-9-9--7-7-7-7-7-7-7-7----------|
                  a|---7-7-7-7-7-7-7-7--5-5-5-5-5-5-5-5----------|
                  E|---------------------------------------------|


Guitar 2:
                  e|---------------------------------------------|
                  b|---7^--7^---5------5---7----5----------------|
                  g|---------------7----------------7---4--------|
                  d|---------------------------------------------|
                  a|---------------------------------------------|
                  E|---------------------------------------------|


                  e|---------------------------------------------|
                  b|---7^--7^---5------5---7----5----------------|
                  g|---------------7----------------7---2--------|
                  d|---------------------------------------------|
                  a|---------------------------------------------|
                  E|---------------------------------------------|




Tabs made by Maik, this Tabs are 100% right! Have you Questions can you me
write : maiksatriani@gmx.de
Tap to rate this tab
# A B C D E F G H I J K L M N O P Q R S T U V W X Y Z