Song name
# A B C D E F G H I J K L M N O P Q R S T U V W X Y Z

Die Aerzte - Heulerei tab

Die Beste Band der Welt - Heulerei

Mein erster tab also..

..wer fehler findet darf sie behalten!!

e --------------------------------------------------------------------------|
H -----2-2--4-4--2-2----2-2--4-4--2-2------2-2--4-4--2-2-------2-2--4-4--22-|
G -3-3---------------3-3---------------1-1-----------------1-1--------------|
D --------------------------------------------------------------------------|
A --------------------------------------------------------------------------|
E --------------------------------------------------------------------------|

e --------------------------------------------------------------------------|
H ---------------------7-7-6-6--4-4-----------------------------------------|
G -----2-2--4-4--2-2----------------6------8--------------------------------|
D -4-4------------------------------6------8--------------------------------|
A ----------------------------------4------6--------------------------------|
E --------------------------------------------------------------------------|
Tap to rate this tab
# A B C D E F G H I J K L M N O P Q R S T U V W X Y Z