Guitaretab - guitar tabs
Song name
# A B C D E F G H I J K L M N O P Q R S T U V W X Y Z

Die Apokalyptischen Reiter - Ein Lichtlein tab

Intro

e|-----------------------------------------|
H|-----------------------------------------|
G|-----------------------------------------|
D|-------------2-4-6-4-2-0-----------------|
A|-2r0-2r0-2-4-------------2r0-2r0-2r0-4-2-|
E|-----------------------------------------|

Verse
[ Tab from: http://www.guitaretab.com/d/die-apokalyptischen-reiter/117234.html ]
e|---------------------------------------------------------------------|
H|---------------------------------------------------------------------|
G|------10--------8---------10---------8-------6--------8--------10----|
D|---10----10---8---8----10----10----8---8---6---6----8---8---10----10-|
A|-8----------6--------8-----------6-------4--------6-------8----------|
E|---------------------------------------------------------------------|

Chorus

e|-8--4-11-6---8--4-6-8--|
H|-9--4-11-6---9--4-6-9--|
G|-10-6-13-8---10-6-8-10-|
D|-10-6-13-8---10-6-8-10-|
A|-8--4-11-6---8--4-8-8--|
E|-8--4-11-6---8--4-8-8--|


Bridge

e|------------------------------------------|
H|------------------------------------------|
G|------10--------6----------13---------8---|
D|---10----10---6---6-----13-----13---8---8-|
A|-8----------4--------11-----------6-------|
E|------------------------------------------|


tabbed by #GuN_deR#
Related for Ein Lichtlein tab
Ein Lichtlein chords by Die Apokalyptischen Reiter